  0
SECTION
  2
HEADER
  9
$ACADVER
  1
AC1014
  9
$ACADMAINTVER
 70
     9
  9
$DWGCODEPAGE
  3
ANSI_932
  9
$INSBASE
 10
0.0
 20
0.0
 30
0.0
  9
$EXTMIN
 10
-262.8000014305115
 20
-90.47998767891075
 30
0.0
  9
$EXTMAX
 10
262.8000014305114
 20
90.47998767891073
 30
0.0
  9
$LIMMIN
 10
-148.5
 20
-105.0
  9
$LIMMAX
 10
148.5
 20
105.0
  9
$ORTHOMODE
 70
     0
  9
$REGENMODE
 70
     1
  9
$FILLMODE
 70
     1
  9
$QTEXTMODE
 70
     0
  9
$MIRRTEXT
 70
     1
  9
$DRAGMODE
 70
     2
  9
$LTSCALE
 40
1.0
  9
$OSMODE
 70
    37
  9
$ATTMODE
 70
     1
  9
$TEXTSIZE
 40
0.2
  9
$TRACEWID
 40
0.05
  9
$TEXTSTYLE
  7
STANDARD
  9
$CLAYER
  8
0
  9
$CELTYPE
  6
BYLAYER
  9
$CECOLOR
 62
   256
  9
$CELTSCALE
 40
1.0
  9
$DELOBJ
 70
     1
  9
$DISPSILH
 70
     0
  9
$DIMSCALE
 40
1.0
  9
$DIMASZ
 40
2.5
  9
$DIMEXO
 40
0.0625
  9
$DIMDLI
 40
0.38
  9
$DIMRND
 40
0.0
  9
$DIMDLE
 40
0.0
  9
$DIMEXE
 40
0.18
  9
$DIMTP
 40
0.0
  9
$DIMTM
 40
0.0
  9
$DIMTXT
 40
0.18
  9
$DIMCEN
 40
0.09
  9
$DIMTSZ
 40
0.0
  9
$DIMTOL
 70
     0
  9
$DIMLIM
 70
     0
  9
$DIMTIH
 70
     1
  9
$DIMTOH
 70
     1
  9
$DIMSE1
 70
     0
  9
$DIMSE2
 70
     0
  9
$DIMTAD
 70
     3
  9
$DIMZIN
 70
     0
  9
$DIMBLK
  1

  9
$DIMASO
 70
     1
  9
$DIMSHO
 70
     1
  9
$DIMPOST
  1

  9
$DIMAPOST
  1

  9
$DIMALT
 70
     0
  9
$DIMALTD
 70
     2
  9
$DIMALTF
 40
25.4
  9
$DIMLFAC
 40
1.0
  9
$DIMTOFL
 70
     0
  9
$DIMTVP
 40
0.0
  9
$DIMTIX
 70
     0
  9
$DIMSOXD
 70
     0
  9
$DIMSAH
 70
     0
  9
$DIMBLK1
  1

  9
$DIMBLK2
  1

  9
$DIMSTYLE
  2
STANDARD
  9
$DIMCLRD
 70
     0
  9
$DIMCLRE
 70
     0
  9
$DIMCLRT
 70
     0
  9
$DIMTFAC
 40
1.0
  9
$DIMGAP
 40
0.09
  9
$DIMJUST
 70
     0
  9
$DIMSD1
 70
     0
  9
$DIMSD2
 70
     0
  9
$DIMTOLJ
 70
     1
  9
$DIMTZIN
 70
     0
  9
$DIMALTZ
 70
     0
  9
$DIMALTTZ
 70
     0
  9
$DIMFIT
 70
     3
  9
$DIMUPT
 70
     0
  9
$DIMUNIT
 70
     2
  9
$DIMDEC
 70
     4
  9
$DIMTDEC
 70
     4
  9
$DIMALTU
 70
     2
  9
$DIMALTTD
 70
     2
  9
$DIMTXSTY
  7
STANDARD
  9
$DIMAUNIT
 70
     0
  9
$LUNITS
 70
     2
  9
$LUPREC
 70
     4
  9
$SKETCHINC
 40
0.1
  9
$FILLETRAD
 40
0.5
  9
$AUNITS
 70
     0
  9
$AUPREC
 70
     0
  9
$MENU
  1
.
  9
$ELEVATION
 40
0.0
  9
$PELEVATION
 40
0.0
  9
$THICKNESS
 40
0.0
  9
$LIMCHECK
 70
     0
  9
$CHAMFERA
 40
0.5
  9
$CHAMFERB
 40
0.5
  9
$CHAMFERC
 40
1.0
  9
$CHAMFERD
 40
0.0
  9
$SKPOLY
 70
     0
  9
$TDCREATE
 40
2456434.792278796
  9
$TDUPDATE
 40
2456434.792278808
  9
$TDINDWG
 40
0.0000000116
  9
$TDUSRTIMER
 40
0.0000000116
  9
$USRTIMER
 70
     1
  9
$ANGBASE
 50
0.0
  9
$ANGDIR
 70
     0
  9
$PDMODE
 70
     0
  9
$PDSIZE
 40
1.0
  9
$PLINEWID
 40
0.0
  9
$COORDS
 70
     1
  9
$SPLFRAME
 70
     0
  9
$SPLINETYPE
 70
     6
  9
$SPLINESEGS
 70
     8
  9
$ATTDIA
 70
     0
  9
$ATTREQ
 70
     1
  9
$HANDLING
 70
     1
  9
$HANDSEED
  5
18E
  9
$SURFTAB1
 70
     6
  9
$SURFTAB2
 70
     6
  9
$SURFTYPE
 70
     6
  9
$SURFU
 70
     6
  9
$SURFV
 70
     6
  9
$UCSNAME
  2

  9
$UCSORG
 10
0.0
 20
0.0
 30
0.0
  9
$UCSXDIR
 10
1.0
 20
0.0
 30
0.0
  9
$UCSYDIR
 10
0.0
 20
1.0
 30
0.0
  9
$PUCSNAME
  2

  9
$PUCSORG
 10
0.0
 20
0.0
 30
0.0
  9
$PUCSXDIR
 10
1.0
 20
0.0
 30
0.0
  9
$PUCSYDIR
 10
0.0
 20
1.0
 30
0.0
  9
$USERI1
 70
     0
  9
$USERI2
 70
     0
  9
$USERI3
 70
     0
  9
$USERI4
 70
     0
  9
$USERI5
 70
     0
  9
$USERR1
 40
0.0
  9
$USERR2
 40
0.0
  9
$USERR3
 40
0.0
  9
$USERR4
 40
0.0
  9
$USERR5
 40
0.0
  9
$WORLDVIEW
 70
     1
  9
$SHADEDGE
 70
     3
  9
$SHADEDIF
 70
    70
  9
$TILEMODE
 70
     1
  9
$MAXACTVP
 70
    64
  9
$PINSBASE
 10
0.0
 20
0.0
 30
0.0
  9
$PLIMCHECK
 70
     0
  9
$PEXTMIN
 10
1.000000000000000E+20
 20
1.000000000000000E+20
 30
1.000000000000000E+20
  9
$PEXTMAX
 10
-1.000000000000000E+20
 20
-1.000000000000000E+20
 30
-1.000000000000000E+20
  9
$PLIMMIN
 10
0.0
 20
0.0
  9
$PLIMMAX
 10
12.0
 20
9.0
  9
$UNITMODE
 70
     0
  9
$VISRETAIN
 70
     0
  9
$PLINEGEN
 70
     1
  9
$PSLTSCALE
 70
     0
  9
$TREEDEPTH
 70
  3020
  9
$PICKSTYLE
 70
     1
  9
$CMLSTYLE
  2
STANDARD
  9
$CMLJUST
 70
     0
  9
$CMLSCALE
 40
1.0
  9
$PROXYGRAPHICS
 70
     0
  9
$MEASUREMENT
 70
     1
  0
ENDSEC
  0
SECTION
  2
CLASSES
  0
CLASS
  1
ACDBDICTIONARYWDFLT
  2
AcDbDictionaryWithDefault
  3
ObjectDBX Classes
 90
        0
280
     0
281
     0
  0
CLASS
  1
XRECORD
  2
AcDbXrecord
  3
AutoCAD 2000
 90
        0
280
     0
281
     0
  0
CLASS
  1
LWPOLYLINE
  2
AcDbPolyline
  3
AutoCAD 2000
 90
        0
280
     0
281
     1
  0
CLASS
  1
HATCH
  2
AcDbHatch
  3
AutoCAD 2000
 90
        0
280
     0
281
     1
  0
CLASS
  1
ACDBPLACEHOLDER
  2
AcDbPlaceHolder
  3
ObjectDBX Classes
 90
        0
280
     0
281
     0
  0
CLASS
  1
LAYOUT
  2
AcDbLayout
  3
ObjectDBX Classes
 90
        0
280
     0
281
     0
  0
ENDSEC
  0
SECTION
  2
TABLES
  0
TABLE
  2
VPORT
  5
8
330
0
100
AcDbSymbolTable
 70
     1
  0
VPORT
  5
29
330
8
100
AcDbSymbolTableRecord
100
AcDbViewportTableRecord
  2
*ACTIVE
 70
     0
 10
0.0
 20
0.0
 11
1.0
 21
1.0
 12
0.0
 22
0.0
 13
0.0
 23
0.0
 14
0.5
 24
0.5
 15
0.5
 25
0.5
 16
0.0
 26
0.0
 36
1.0
 17
-0.0000000000000178
 27
0.0000000000000036
 37
0.0
 40
61.52639162165931
 41
2.904509695150693
 42
50.0
 43
0.0
 44
0.0
 50
0.0
 51
0.0
 71
     0
 72
  1000
 73
     1
 74
     1
 75
     0
 76
     0
 77
     0
 78
     0
  0
ENDTAB
  0
TABLE
  2
LTYPE
  5
5
330
0
100
AcDbSymbolTable
 70
    28
  0
LTYPE
  5
14
330
5
100
AcDbSymbolTableRecord
100
AcDbLinetypeTableRecord
  2
BYBLOCK
 70
     0
  3

 72
    65
 73
     0
 40
0.0
  0
LTYPE
  5
15
330
5
100
AcDbSymbolTableRecord
100
AcDbLinetypeTableRecord
  2
BYLAYER
 70
     0
  3

 72
    65
 73
     0
 40
0.0
  0
LTYPE
  5
16
330
5
100
AcDbSymbolTableRecord
100
AcDbLinetypeTableRecord
  2
CONTINUOUS
 70
     0
  3
Solid line
 72
    65
 73
     0
 40
0.0
  0
LTYPE
  5
2B
330
5
100
AcDbSymbolTableRecord
100
AcDbLinetypeTableRecord
  2
HIDDENX2
 70
     0
  3
CADPAC LINETYPE
 72
    65
 73
     2
 40
4.57516339869278
 49
3.431372549019585
 74
     0
 49
-1.143790849673195
 74
     0
  0
LTYPE
  5
2C
330
5
100
AcDbSymbolTableRecord
100
AcDbLinetypeTableRecord
  2
HIDDEN
 70
     0
  3
CADPAC LINETYPE
 72
    65
 73
     2
 40
3.431372549019585
 49
2.28758169934639
 74
     0
 49
-1.143790849673195
 74
     0
  0
LTYPE
  5
2D
330
5
100
AcDbSymbolTableRecord
100
AcDbLinetypeTableRecord
  2
HIDDEN2
 70
     0
  3
CADPAC LINETYPE
 72
    65
 73
     2
 40
2.859477124182988
 49
1.715686274509793
 74
     0
 49
-1.143790849673195
 74
     0
  0
LTYPE
  5
2E
330
5
100
AcDbSymbolTableRecord
100
AcDbLinetypeTableRecord
  2
DASHED
 70
     0
  3
CADPAC LINETYPE
 72
    65
 73
     2
 40
3.202614379084935
 49
2.28758169934639
 74
     0
 49
-0.9150326797385446
 74
     0
  0
LTYPE
  5
2F
330
5
100
AcDbSymbolTableRecord
100
AcDbLinetypeTableRecord
  2
DASHED2
 70
     0
  3
CADPAC LINETYPE
 72
    65
 73
     2
 40
2.058823529411711
 49
1.372549019607817
 74
     0
 49
-0.6862745098038943
 74
     0
  0
LTYPE
  5
30
330
5
100
AcDbSymbolTableRecord
100
AcDbLinetypeTableRecord
  2
DASHEDX2
 70
     0
  3
CADPAC LINETYPE
 72
    65
 73
     2
 40
5.490196078431325
 49
4.57516339869278
 74
     0
 49
-0.9150326797385446
 74
     0
  0
LTYPE
  5
31
330
5
100
AcDbSymbolTableRecord
100
AcDbLinetypeTableRecord
  2
DOTX2
 70
     0
  3
CADPAC LINETYPE
 72
    65
 73
     2
 40
2.001633986928084
 49
0.0
 74
     0
 49
-2.001633986928084
 74
     0
  0
LTYPE
  5
32
330
5
100
AcDbSymbolTableRecord
100
AcDbLinetypeTableRecord
  2
DOT
 70
     0
  3
CADPAC LINETYPE
 72
    65
 73
     2
 40
1.601307189542467
 49
0.0
 74
     0
 49
-1.601307189542467
 74
     0
  0
LTYPE
  5
33
330
5
100
AcDbSymbolTableRecord
100
AcDbLinetypeTableRecord
  2
DOT2
 70
     0
  3
CADPAC LINETYPE
 72
    65
 73
     2
 40
1.200980392156851
 49
0.0
 74
     0
 49
-1.200980392156851
 74
     0
  0
LTYPE
  5
34
330
5
100
AcDbSymbolTableRecord
100
AcDbLinetypeTableRecord
  2
CENTERX2
 70
     0
  3
CADPAC LINETYPE
 72
    65
 73
     4
 40
6.86274509803917
 49
2.859477124182988
 74
     0
 49
-1.429738562091494
 74
     0
 49
1.143790849673195
 74
     0
 49
-1.429738562091494
 74
     0
  0
LTYPE
  5
35
330
5
100
AcDbSymbolTableRecord
100
AcDbLinetypeTableRecord
  2
CENTER
 70
     0
  3
CADPAC LINETYPE
 72
    65
 73
     4
 40
5.261437908496697
 49
2.28758169934639
 74
     0
 49
-1.143790849673195
 74
     0
 49
0.686274509803917
 74
     0
 49
-1.143790849673195
 74
     0
  0
LTYPE
  5
36
330
5
100
AcDbSymbolTableRecord
100
AcDbLinetypeTableRecord
  2
CENTER2
 70
     0
  3
CADPAC LINETYPE
 72
    65
 73
     4
 40
3.660130718954224
 49
1.715686274509793
 74
     0
 49
-0.8578431372548963
 74
     0
 49
0.228758169934639
 74
     0
 49
-0.8578431372548963
 74
     0
  0
LTYPE
  5
37
330
5
100
AcDbSymbolTableRecord
100
AcDbLinetypeTableRecord
  2
DASHDOTX2
 70
     0
  3
CADPAC LINETYPE
 72
    65
 73
     4
 40
10.98039215686262
 49
5.490196078431353
 74
     0
 49
-1.830065359477089
 74
     0
 49
1.830065359477089
 74
     0
 49
-1.830065359477089
 74
     0
  0
LTYPE
  5
38
330
5
100
AcDbSymbolTableRecord
100
AcDbLinetypeTableRecord
  2
DASHDOT
 70
     0
  3
CADPAC LINETYPE
 72
    65
 73
     4
 40
5.490196078431296
 49
2.745098039215662
 74
     0
 49
-0.9150326797385446
 74
     0
 49
0.9150326797385446
 74
     0
 49
-0.9150326797385446
 74
     0
  0
LTYPE
  5
39
330
5
100
AcDbSymbolTableRecord
100
AcDbLinetypeTableRecord
  2
DASHDOT2
 70
     0
  3
CADPAC LINETYPE
 72
    65
 73
     4
 40
3.522875816993418
 49
2.058823529411747
 74
     0
 49
-0.6862745098039085
 74
     0
 49
0.0915032679738545
 74
     0
 49
-0.6862745098039085
 74
     0
  0
LTYPE
  5
3A
330
5
100
AcDbSymbolTableRecord
100
AcDbLinetypeTableRecord
  2
DIVIDEX2
 70
     0
  3
CADPAC LINETYPE
 72
    65
 73
     6
 40
14.6405228758168
 49
5.490196078431353
 74
     0
 49
-1.830065359477089
 74
     0
 49
1.830065359477089
 74
     0
 49
-1.830065359477089
 74
     0
 49
1.830065359477089
 74
     0
 49
-1.830065359477089
 74
     0
  0
LTYPE
  5
3B
330
5
100
AcDbSymbolTableRecord
100
AcDbLinetypeTableRecord
  2
DIVIDE
 70
     0
  3
CADPAC LINETYPE
 72
    65
 73
     6
 40
7.320261437908386
 49
2.745098039215662
 74
     0
 49
-0.9150326797385446
 74
     0
 49
0.9150326797385446
 74
     0
 49
-0.9150326797385446
 74
     0
 49
0.9150326797385446
 74
     0
 49
-0.9150326797385446
 74
     0
  0
LTYPE
  5
3C
330
5
100
AcDbSymbolTableRecord
100
AcDbLinetypeTableRecord
  2
DIVIDE2
 70
     0
  3
CADPAC LINETYPE
 72
    65
 73
     6
 40
5.490196078431289
 49
2.058823529411747
 74
     0
 49
-0.6862745098039085
 74
     0
 49
0.6862745098039085
 74
     0
 49
-0.6862745098039085
 74
     0
 49
0.6862745098039085
 74
     0
 49
-0.6862745098039085
 74
     0
  0
LTYPE
  5
3D
330
5
100
AcDbSymbolTableRecord
100
AcDbLinetypeTableRecord
  2
BORDERX2
 70
     0
  3
CADPAC LINETYPE
 72
    65
 73
     6
 40
10.00816993464046
 49
2.859477124182988
 74
     0
 49
-1.429738562091494
 74
     0
 49
2.859477124182988
 74
     0
 49
-1.429738562091494
 74
     0
 49
0.0
 74
     0
 49
-1.429738562091494
 74
     0
  0
LTYPE
  5
3E
330
5
100
AcDbSymbolTableRecord
100
AcDbLinetypeTableRecord
  2
BORDER
 70
     0
  3
CADPAC LINETYPE
 72
    65
 73
     6
 40
8.006535947712365
 49
2.28758169934639
 74
     0
 49
-1.143790849673195
 74
     0
 49
2.28758169934639
 74
     0
 49
-1.143790849673195
 74
     0
 49
0.0
 74
     0
 49
-1.143790849673195
 74
     0
  0
LTYPE
  5
3F
330
5
100
AcDbSymbolTableRecord
100
AcDbLinetypeTableRecord
  2
BORDER2
 70
     0
  3
CADPAC LINETYPE
 72
    65
 73
     6
 40
5.947712418300569
 49
1.830065359477089
 74
     0
 49
-1.143790849673195
 74
     0
 49
0.6862745098038943
 74
     0
 49
-1.143790849673195
 74
     0
 49
0.0
 74
     0
 49
-1.143790849673195
 74
     0
  0
LTYPE
  5
40
330
5
100
AcDbSymbolTableRecord
100
AcDbLinetypeTableRecord
  2
PHANTOMX2
 70
     0
  3
CADPAC LINETYPE
 72
    65
 73
     6
 40
8.578431372548963
 49
2.859477124182988
 74
     0
 49
-1.143790849673195
 74
     0
 49
1.143790849673195
 74
     0
 49
-1.143790849673195
 74
     0
 49
1.143790849673195
 74
     0
 49
-1.143790849673195
 74
     0
  0
LTYPE
  5
41
330
5
100
AcDbSymbolTableRecord
100
AcDbLinetypeTableRecord
  2
PHANTOM
 70
     0
  3
CADPAC LINETYPE
 72
    65
 73
     6
 40
7.09150326797381
 49
2.28758169934639
 74
     0
 49
-1.143790849673195
 74
     0
 49
0.686274509803917
 74
     0
 49
-1.143790849673195
 74
     0
 49
0.686274509803917
 74
     0
 49
-1.143790849673195
 74
     0
  0
LTYPE
  5
42
330
5
100
AcDbSymbolTableRecord
100
AcDbLinetypeTableRecord
  2
PHANTOM2
 70
     0
  3
CADPAC LINETYPE
 72
    65
 73
     6
 40
6.062091503267933
 49
1.715686274509793
 74
     0
 49
-1.143790849673195
 74
     0
 49
0.457516339869278
 74
     0
 49
-1.143790849673195
 74
     0
 49
0.457516339869278
 74
     0
 49
-1.143790849673195
 74
     0
  0
LTYPE
  5
43
330
5
100
AcDbSymbolTableRecord
100
AcDbLinetypeTableRecord
  2
ACAD_ISO06W100
 70
     0
  3
CADPAC LINETYPE
 72
    65
 73
     8
 40
12.12418300653582
 49
5.490196078431353
 74
     0
 49
-1.143790849673195
 74
     0
 49
0.6862745098038943
 74
     0
 49
-1.143790849673195
 74
     0
 49
0.6862745098038943
 74
     0
 49
-1.143790849673195
 74
     0
 49
0.6862745098038943
 74
     0
 49
-1.143790849673195
 74
     0
  0
LTYPE
  5
44
330
5
100
AcDbSymbolTableRecord
100
AcDbLinetypeTableRecord
  2
ACAD_ISO13W100
 70
     0
  3
CADPAC LINETYPE
 72
    65
 73
     8
 40
9.15032679738556
 49
2.28758169934639
 74
     0
 49
-1.143790849673195
 74
     0
 49
2.28758169934639
 74
     0
 49
-1.143790849673195
 74
     0
 49
0.0
 74
     0
 49
-1.143790849673195
 74
     0
 49
0.0
 74
     0
 49
-1.143790849673195
 74
     0
  0
LTYPE
  5
45
330
5
100
AcDbSymbolTableRecord
100
AcDbLinetypeTableRecord
  2
ACAD_ISO14W100
 70
     0
  3
CADPAC LINETYPE
 72
    65
 73
     8
 40
6.86274509803917
 49
2.28758169934639
 74
     0
 49
-1.143790849673195
 74
     0
 49
0.0
 74
     0
 49
-1.143790849673195
 74
     0
 49
0.0
 74
     0
 49
-1.143790849673195
 74
     0
 49
0.0
 74
     0
 49
-1.143790849673195
 74
     0
  0
ENDTAB
  0
TABLE
  2
LAYER
  5
2
330
0
100
AcDbSymbolTable
 70
     1
  0
LAYER
  5
10
330
2
100
AcDbSymbolTableRecord
100
AcDbLayerTableRecord
  2
0
 70
     0
 62
     7
  6
CONTINUOUS
  0
ENDTAB
  0
TABLE
  2
STYLE
  5
3
330
0
100
AcDbSymbolTable
 70
     2
  0
STYLE
  5
11
330
3
100
AcDbSymbolTableRecord
100
AcDbTextStyleTableRecord
  2
STANDARD
 70
     0
 40
0.0
 41
1.0
 50
0.0
 71
     0
 42
0.2
  3
txt
  4

  0
STYLE
  5
79
330
3
100
AcDbSymbolTableRecord
100
AcDbTextStyleTableRecord
  2
FDASTYLE0
 70
     0
 40
4.0
 41
0.8000000000000007
 50
0.0
 71
     0
 42
0.2
  3
txt.shx
  4
bigfont
  0
ENDTAB
  0
TABLE
  2
VIEW
  5
6
330
0
100
AcDbSymbolTable
 70
     0
  0
ENDTAB
  0
TABLE
  2
UCS
  5
7
330
0
100
AcDbSymbolTable
 70
     0
  0
ENDTAB
  0
TABLE
  2
APPID
  5
9
330
0
100
AcDbSymbolTable
 70
     2
  0
APPID
  5
12
330
9
100
AcDbSymbolTableRecord
100
AcDbRegAppTableRecord
  2
ACAD
 70
     0
  0
APPID
  5
2A
330
9
100
AcDbSymbolTableRecord
100
AcDbRegAppTableRecord
  2
DAFUSIONOUT
 70
     0
  0
ENDTAB
  0
TABLE
  2
DIMSTYLE
  5
A
330
0
100
AcDbSymbolTable
 70
     1
  0
DIMSTYLE
105
27
330
A
100
AcDbSymbolTableRecord
100
AcDbDimStyleTableRecord
  2
STANDARD
 70
     0
  3

  4

  5

  6

  7

 40
1.0
 41
0.18
 42
0.0625
 43
0.38
 44
0.18
 45
0.0
 46
0.0
 47
0.0
 48
0.0
140
0.18
141
0.09
142
0.0
143
25.4
144
1.0
145
0.0
146
1.0
147
0.09
 71
     0
 72
     0
 73
     1
 74
     1
 75
     0
 76
     0
 77
     0
 78
     0
170
     0
171
     2
172
     0
173
     0
174
     0
175
     0
176
     0
177
     0
178
     0
270
     2
271
     4
272
     4
273
     2
274
     2
340
11
275
     0
280
     0
281
     0
282
     0
283
     1
284
     0
285
     0
286
     0
287
     3
288
     0
  0
ENDTAB
  0
TABLE
  2
BLOCK_RECORD
  5
1
330
0
100
AcDbSymbolTable
 70
    16
  0
BLOCK_RECORD
  5
1F
330
1
100
AcDbSymbolTableRecord
100
AcDbBlockTableRecord
  2
*MODEL_SPACE
  0
BLOCK_RECORD
  5
1B
330
1
100
AcDbSymbolTableRecord
100
AcDbBlockTableRecord
  2
*PAPER_SPACE
  0
BLOCK_RECORD
  5
47
330
1
100
AcDbSymbolTableRecord
100
AcDbBlockTableRecord
  2
DA_IMAGEDIMGROUP_1
  0
BLOCK_RECORD
  5
4A
330
1
100
AcDbSymbolTableRecord
100
AcDbBlockTableRecord
  2
DA_IMAGEDIMGROUP_2
  0
BLOCK_RECORD
  5
4D
330
1
100
AcDbSymbolTableRecord
100
AcDbBlockTableRecord
  2
DA_IMAGEDIMGROUP_3
  0
BLOCK_RECORD
  5
50
330
1
100
AcDbSymbolTableRecord
100
AcDbBlockTableRecord
  2
DA_IMAGEDIMGROUP_4
  0
BLOCK_RECORD
  5
53
330
1
100
AcDbSymbolTableRecord
100
AcDbBlockTableRecord
  2
DC_GROUP_1
  0
BLOCK_RECORD
  5
56
330
1
100
AcDbSymbolTableRecord
100
AcDbBlockTableRecord
  2
DA_IMAGEDIMGROUP_5
  0
BLOCK_RECORD
  5
59
330
1
100
AcDbSymbolTableRecord
100
AcDbBlockTableRecord
  2
DA_IMAGEDIMGROUP_6
  0
BLOCK_RECORD
  5
5C
330
1
100
AcDbSymbolTableRecord
100
AcDbBlockTableRecord
  2
DA_IMAGEDIMGROUP_7
  0
BLOCK_RECORD
  5
5F
330
1
100
AcDbSymbolTableRecord
100
AcDbBlockTableRecord
  2
DA_IMAGEDIMGROUP_8
  0
BLOCK_RECORD
  5
62
330
1
100
AcDbSymbolTableRecord
100
AcDbBlockTableRecord
  2
DC_GROUP_2
  0
BLOCK_RECORD
  5
65
330
1
100
AcDbSymbolTableRecord
100
AcDbBlockTableRecord
  2
DA_IMAGEDIMGROUP_9
  0
BLOCK_RECORD
  5
68
330
1
100
AcDbSymbolTableRecord
100
AcDbBlockTableRecord
  2
DC_GROUP_3
  0
BLOCK_RECORD
  5
6B
330
1
100
AcDbSymbolTableRecord
100
AcDbBlockTableRecord
  2
DA_IMAGEDIMGROUP_10
  0
BLOCK_RECORD
  5
71
330
1
100
AcDbSymbolTableRecord
100
AcDbBlockTableRecord
  2
_OPEN30
  0
BLOCK_RECORD
  5
8A
330
1
100
AcDbSymbolTableRecord
100
AcDbBlockTableRecord
  2
_DOT
  0
ENDTAB
  0
ENDSEC
  0
SECTION
  2
BLOCKS
  0
BLOCK
  5
20
330
1F
100
AcDbEntity
  8
0
100
AcDbBlockBegin
  2
*MODEL_SPACE
 70
     0
 71
     0
 10
0.0
 20
0.0
 30
0.0
  3
*MODEL_SPACE
  1

  0
ENDBLK
  5
21
330
1F
100
AcDbEntity
  8
0
100
AcDbBlockEnd
  0
BLOCK
  5
1C
330
1B
100
AcDbEntity
 67
     1
  8
0
100
AcDbBlockBegin
  2
*PAPER_SPACE
 70
     0
 71
     0
 10
0.0
 20
0.0
 30
0.0
  3
*PAPER_SPACE
  1

  0
ENDBLK
  5
1D
330
1B
100
AcDbEntity
 67
     1
  8
0
100
AcDbBlockEnd
  0
BLOCK
  5
48
330
47
100
AcDbEntity
  8
0
100
AcDbBlockBegin
  2
DA_IMAGEDIMGROUP_1
 70
     0
 71
     0
 10
0.0
 20
0.0
 30
0.0
  3
DA_IMAGEDIMGROUP_1
  1

  0
LINE
  5
6E
330
47
100
AcDbEntity
  8
0
  6
CONTINUOUS
 62
     9
100
AcDbLine
 10
-84.10000047683717
 20
1.659995892970102
 30
0.0
 11
-84.10000047683717
 21
16.65999568435395
 31
0.0
  0
LINE
  5
6F
330
47
100
AcDbEntity
  8
0
  6
CONTINUOUS
 62
     9
100
AcDbLine
 10
-72.10000047683717
 20
1.659995892970271
 30
0.0
 11
-72.10000047683717
 21
16.65999568435395
 31
0.0
  0
LINE
  5
70
330
47
100
AcDbEntity
  8
0
  6
CONTINUOUS
 62
     9
100
AcDbLine
 10
-84.10000047683717
 20
15.65999568435395
 30
0.0
 11
-72.10000047683717
 21
15.65999568435395
 31
0.0
  0
INSERT
  5
77
330
47
100
AcDbEntity
  8
0
 62
     9
100
AcDbBlockReference
  2
_OPEN30
 10
-84.10000047683717
 20
15.65999568435395
 30
0.0
 41
3.000002787824364
 42
2.999989273978464
 50
180.0
  0
INSERT
  5
78
330
47
100
AcDbEntity
  8
0
 62
     9
100
AcDbBlockReference
  2
_OPEN30
 10
-72.10000047683717
 20
15.65999568435395
 30
0.0
 41
3.000002787824364
 42
2.999989273978464
 50
360.0
  0
TEXT
  5
7A
330
47
100
AcDbEntity
  8
0
 62
     7
100
AcDbText
 10
-85.96000047683717
 20
16.65999568435395
 30
0.0
 40
4.0
  1
12
 41
0.8000000000000007
  7
FDASTYLE0
 72
     5
 11
-79.56000047683716
 21
16.65999568435395
 31
0.0
100
AcDbText
  0
TEXT
  5
7B
330
47
100
AcDbEntity
  8
0
 62
     7
100
AcDbText
 10
-78.56000047683716
 20
19.25999568435395
 30
0.0
 40
2.6
  1
±0.2
 41
0.7619047619047612
  7
FDASTYLE0
 72
     5
 11
-70.24000047683717
 21
19.25999568435395
 31
0.0
100
AcDbText
  0
ENDBLK
  5
49
330
47
100
AcDbEntity
  8
0
100
AcDbBlockEnd
  0
BLOCK
  5
4B
330
4A
100
AcDbEntity
  8
0
100
AcDbBlockBegin
  2
DA_IMAGEDIMGROUP_2
 70
     0
 71
     0
 10
0.0
 20
0.0
 30
0.0
  3
DA_IMAGEDIMGROUP_2
  1

  0
LINE
  5
7C
330
4A
100
AcDbEntity
  8
0
  6
CONTINUOUS
 62
     9
100
AcDbLine
 10
-9.600000476837195
 20
1.659995892970223
 30
0.0
 11
-9.600000476837195
 21
16.65999568435395
 31
0.0
  0
LINE
  5
7D
330
4A
100
AcDbEntity
  8
0
  6
CONTINUOUS
 62
     9
100
AcDbLine
 10
-3.000000476837165
 20
2.159995892970223
 30
0.0
 11
-3.000000476837165
 21
16.65999568435395
 31
0.0
  0
LINE
  5
7E
330
4A
100
AcDbEntity
  8
0
  6
CONTINUOUS
 62
     9
100
AcDbLine
 10
-9.600000476837195
 20
15.65999568435395
 30
0.0
 11
-3.000000476837165
 21
15.65999568435395
 31
0.0
  0
LINE
  5
7F
330
4A
100
AcDbEntity
  8
0
  6
CONTINUOUS
 62
     9
100
AcDbLine
 10
-24.09778047683719
 20
15.65999568435395
 30
0.0
 11
-9.600000476837188
 21
15.65999568435395
 31
0.0
  0
INSERT
  5
80
330
4A
100
AcDbEntity
  8
0
 62
     9
100
AcDbBlockReference
  2
_OPEN30
 10
-9.600000476837188
 20
15.65999568435395
 30
0.0
 41
3.000002787824364
 42
2.999989273978464
 50
360.0
  0
LINE
  5
81
330
4A
100
AcDbEntity
  8
0
  6
CONTINUOUS
 62
     9
100
AcDbLine
 10
1.999999523162835
 20
15.65999568435395
 30
0.0
 11
-3.000000476837165
 21
15.65999568435395
 31
0.0
  0
INSERT
  5
82
330
4A
100
AcDbEntity
  8
0
 62
     9
100
AcDbBlockReference
  2
_OPEN30
 10
-3.000000476837165
 20
15.65999568435395
 30
0.0
 41
3.000002787824364
 42
2.999989273978464
 50
179.9999999999999
  0
TEXT
  5
83
330
4A
100
AcDbEntity
  8
0
 62
     7
100
AcDbText
 10
-23.09778047683719
 20
16.65999568435395
 30
0.0
 40
4.0
  1
6.6
 41
0.8000000000000002
  7
FDASTYLE0
 72
     5
 11
-13.49778047683719
 21
16.65999568435395
 31
0.0
100
AcDbText
  0
ENDBLK
  5
4C
330
4A
100
AcDbEntity
  8
0
100
AcDbBlockEnd
  0
BLOCK
  5
4E
330
4D
100
AcDbEntity
  8
0
100
AcDbBlockBegin
  2
DA_IMAGEDIMGROUP_3
 70
     0
 71
     0
 10
0.0
 20
0.0
 30
0.0
  3
DA_IMAGEDIMGROUP_3
  1

  0
LINE
  5
84
330
4D
100
AcDbEntity
  8
0
  6
CONTINUOUS
 62
     9
100
AcDbLine
 10
-9.600000476837195
 20
1.659995892970223
 30
0.0
 11
-9.600000476837195
 21
24.65999568435395
 31
0.0
  0
LINE
  5
85
330
4D
100
AcDbEntity
  8
0
  6
CONTINUOUS
 62
     9
100
AcDbLine
 10
-2.600000476837188
 20
3.659995892970294
 30
0.0
 11
-2.600000476837188
 21
24.65999568435395
 31
0.0
  0
LINE
  5
86
330
4D
100
AcDbEntity
  8
0
  6
CONTINUOUS
 62
     9
100
AcDbLine
 10
-9.600000476837195
 20
23.65999568435395
 30
0.0
 11
-2.600000476837188
 21
23.65999568435395
 31
0.0
  0
LINE
  5
87
330
4D
100
AcDbEntity
  8
0
  6
CONTINUOUS
 62
     9
100
AcDbLine
 10
0.9999995231628205
 20
7.659995892970251
 30
0.0
 11
0.9999995231628205
 21
24.65999568435395
 31
0.0
  0
LINE
  5
88
330
4D
100
AcDbEntity
  8
0
  6
CONTINUOUS
 62
     9
100
AcDbLine
 10
46.59999952316282
 20
7.223231689336835
 30
0.0
 11
46.59999952316282
 21
24.65999568435395
 31
0.0
  0
LINE
  5
89
330
4D
100
AcDbEntity
  8
0
  6
CONTINUOUS
 62
     9
100
AcDbLine
 10
-2.600000476837188
 20
23.65999568435395
 30
0.0
 11
0.9999995231628205
 21
23.65999568435395
 31
0.0
  0
INSERT
  5
8F
330
4D
100
AcDbEntity
  8
0
 62
     9
100
AcDbBlockReference
  2
_DOT
 10
-2.600000476837188
 20
23.65999568435395
 30
0.0
 41
2.5
 42
2.5
 50
180.0
  0
LINE
  5
90
330
4D
100
AcDbEntity
  8
0
  6
CONTINUOUS
 62
     9
100
AcDbLine
 10
0.9999995231628205
 20
23.65999568435395
 30
0.0
 11
46.59999952316282
 21
23.65999568435395
 31
0.0
  0
INSERT
  5
91
330
4D
100
AcDbEntity
  8
0
 62
     9
100
AcDbBlockReference
  2
_OPEN30
 10
0.9999995231628205
 20
23.65999568435395
 30
0.0
 41
3.000002787824364
 42
2.999989273978464
 50
180.0
  0
INSERT
  5
92
330
4D
100
AcDbEntity
  8
0
 62
     9
100
AcDbBlockReference
  2
_OPEN30
 10
46.59999952316282
 20
23.65999568435395
 30
0.0
 41
3.000002787824364
 42
2.999989273978464
 50
360.0
  0
LINE
  5
93
330
4D
100
AcDbEntity
  8
0
  6
CONTINUOUS
 62
     9
100
AcDbLine
 10
-17.69778047683719
 20
23.65999568435395
 30
0.0
 11
-9.600000476837188
 21
23.65999568435395
 31
0.0
  0
INSERT
  5
94
330
4D
100
AcDbEntity
  8
0
 62
     9
100
AcDbBlockReference
  2
_OPEN30
 10
-9.600000476837188
 20
23.65999568435395
 30
0.0
 41
3.000002787824364
 42
2.999989273978464
 50
360.0
  0
TEXT
  5
95
330
4D
100
AcDbEntity
  8
0
 62
     7
100
AcDbText
 10
-16.69778047683719
 20
24.65999568435395
 30
0.0
 40
4.0
  1
7
 41
0.7999999999999998
  7
FDASTYLE0
 72
     5
 11
-13.49778047683719
 21
24.65999568435395
 31
0.0
100
AcDbText
  0
TEXT
  5
96
330
4D
100
AcDbEntity
  8
0
 62
     7
100
AcDbText
 10
-6.193126010569049
 20
24.65999568435395
 30
0.0
 40
4.0
  1
3.6
 41
0.8000000000000002
  7
FDASTYLE0
 72
     5
 11
3.406873989430952
 21
24.65999568435395
 31
0.0
100
AcDbText
  0
TEXT
  5
97
330
4D
100
AcDbEntity
  8
0
 62
     7
100
AcDbText
 10
17.39999952316282
 20
24.65999568435395
 30
0.0
 40
4.0
  1
45.6
 41
0.8000000000000003
  7
FDASTYLE0
 72
     5
 11
30.19999952316282
 21
24.65999568435395
 31
0.0
100
AcDbText
  0
ENDBLK
  5
4F
330
4D
100
AcDbEntity
  8
0
100
AcDbBlockEnd
  0
BLOCK
  5
51
330
50
100
AcDbEntity
  8
0
100
AcDbBlockBegin
  2
DA_IMAGEDIMGROUP_4
 70
     0
 71
     0
 10
0.0
 20
0.0
 30
0.0
  3
DA_IMAGEDIMGROUP_4
  1

  0
LINE
  5
98
330
50
100
AcDbEntity
  8
0
  6
CONTINUOUS
 62
     9
100
AcDbLine
 10
46.59999952316282
 20
7.223231689336835
 30
0.0
 11
46.59999952316282
 21
16.65999568435395
 31
0.0
  0
LINE
  5
99
330
50
100
AcDbEntity
  8
0
  6
CONTINUOUS
 62
     9
100
AcDbLine
 10
21.59999952316283
 20
8.459995684353952
 30
0.0
 11
21.59999952316283
 21
16.65999568435395
 31
0.0
  0
LINE
  5
9A
330
50
100
AcDbEntity
  8
0
  6
CONTINUOUS
 62
     9
100
AcDbLine
 10
47.79999952316284
 20
6.25999589297021
 30
0.0
 11
47.79999952316284
 21
16.65999568435395
 31
0.0
  0
LINE
  5
9B
330
50
100
AcDbEntity
  8
0
  6
CONTINUOUS
 62
     9
100
AcDbLine
 10
46.59999952316282
 20
15.65999568435395
 30
0.0
 11
47.79999952316284
 21
15.65999568435395
 31
0.0
  0
LINE
  5
9C
330
50
100
AcDbEntity
  8
0
  6
CONTINUOUS
 62
     9
100
AcDbLine
 10
21.59999952316283
 20
15.65999568435395
 30
0.0
 11
46.59999952316282
 21
15.65999568435395
 31
0.0
  0
INSERT
  5
9D
330
50
100
AcDbEntity
  8
0
 62
     9
100
AcDbBlockReference
  2
_OPEN30
 10
21.59999952316283
 20
15.65999568435395
 30
0.0
 41
3.000002787824364
 42
2.999989273978464
 50
180.0
  0
INSERT
  5
9E
330
50
100
AcDbEntity
  8
0
 62
     9
100
AcDbBlockReference
  2
_OPEN30
 10
46.59999952316282
 20
15.65999568435395
 30
0.0
 41
3.000002787824364
 42
2.999989273978464
 50
360.0
  0
LINE
  5
9F
330
50
100
AcDbEntity
  8
0
  6
CONTINUOUS
 62
     9
100
AcDbLine
 10
62.29777952316284
 20
15.65999568435395
 30
0.0
 11
47.79999952316284
 21
15.65999568435395
 31
0.0
  0
INSERT
  5
A0
330
50
100
AcDbEntity
  8
0
 62
     9
100
AcDbBlockReference
  2
_OPEN30
 10
47.79999952316284
 20
15.65999568435395
 30
0.0
 41
3.000002787824364
 42
2.999989273978464
 50
180.0
  0
TEXT
  5
A1
330
50
100
AcDbEntity
  8
0
 62
     7
100
AcDbText
 10
30.89999952316282
 20
16.65999568435395
 30
0.0
 40
4.0
  1
25
 41
0.8000000000000003
  7
FDASTYLE0
 72
     5
 11
37.29999952316283
 21
16.65999568435395
 31
0.0
100
AcDbText
  0
TEXT
  5
A2
330
50
100
AcDbEntity
  8
0
 62
     7
100
AcDbText
 10
51.69777952316284
 20
16.65999568435395
 30
0.0
 40
4.0
  1
1.2
 41
0.8000000000000002
  7
FDASTYLE0
 72
     5
 11
61.29777952316284
 21
16.65999568435395
 31
0.0
100
AcDbText
  0
ENDBLK
  5
52
330
50
100
AcDbEntity
  8
0
100
AcDbBlockEnd
  0
BLOCK
  5
54
330
53
100
AcDbEntity
  8
0
100
AcDbBlockBegin
  2
DC_GROUP_1
 70
     0
 71
     0
 10
0.0
 20
0.0
 30
0.0
  3
DC_GROUP_1
  1

  0
LINE
  5
A3
330
53
100
AcDbEntity
  8
0
  6
CONTINUOUS
 62
     9
100
AcDbLine
 10
27.99999952316281
 20
-5.090004211337915
 30
0.0
 11
21.49999952316283
 21
-25.34000431564604
 31
0.0
  0
INSERT
  5
A4
330
53
100
AcDbEntity
  8
0
 62
     9
100
AcDbBlockReference
  2
_DOT
 10
27.99999952316281
 20
-5.090004211337915
 30
0.0
 41
2.5
 42
2.5
 50
72.20401116195431
  0
LINE
  5
A5
330
53
100
AcDbEntity
  8
0
  6
CONTINUOUS
 62
     9
100
AcDbLine
 10
21.49999952316283
 20
-25.34000431564604
 30
0.0
 11
-23.30000047683718
 21
-25.34000431564604
 31
0.0
  0
TEXT
  5
A6
330
53
100
AcDbEntity
  8
0
 62
     7
100
AcDbText
 10
-23.30000047683718
 20
-24.34000431564604
 30
0.0
 40
4.0
  1
NAMEPLATE　LOT№
 41
0.7777777777777778
  7
FDASTYLE0
 72
     5
 11
21.49999952316283
 21
-24.34000431564604
 31
0.0
100
AcDbText
  0
ENDBLK
  5
55
330
53
100
AcDbEntity
  8
0
100
AcDbBlockEnd
  0
BLOCK
  5
57
330
56
100
AcDbEntity
  8
0
100
AcDbBlockBegin
  2
DA_IMAGEDIMGROUP_5
 70
     0
 71
     0
 10
0.0
 20
0.0
 30
0.0
  3
DA_IMAGEDIMGROUP_5
  1

  0
LINE
  5
A7
330
56
100
AcDbEntity
  8
0
  6
CONTINUOUS
 62
     9
100
AcDbLine
 10
-10.6000004768372
 20
0.6599958929702225
 30
0.0
 11
-30.60000047683719
 21
0.6599958929702225
 31
0.0
  0
LINE
  5
A8
330
56
100
AcDbEntity
  8
0
  6
CONTINUOUS
 62
     9
100
AcDbLine
 10
-10.4500004768372
 20
-2.840004107029778
 30
0.0
 11
-30.60000047683719
 21
-2.840004107029778
 31
0.0
  0
LINE
  5
A9
330
56
100
AcDbEntity
  8
0
  6
CONTINUOUS
 62
     9
100
AcDbLine
 10
-29.60000047683719
 20
-2.840004107029778
 30
0.0
 11
-29.60000047683719
 21
0.6599958929702225
 31
0.0
  0
LINE
  5
AA
330
56
100
AcDbEntity
  8
0
  6
CONTINUOUS
 62
     9
100
AcDbLine
 10
-29.60000047683718
 20
30.15999589297025
 30
0.0
 11
-29.60000047683719
 21
0.6599958929702225
 31
0.0
  0
INSERT
  5
AB
330
56
100
AcDbEntity
  8
0
 62
     9
100
AcDbBlockReference
  2
_OPEN30
 10
-29.60000047683719
 20
0.6599958929702225
 30
0.0
 41
3.000002787824364
 42
2.999989273978464
 50
270.0
  0
LINE
  5
AC
330
56
100
AcDbEntity
  8
0
  6
CONTINUOUS
 62
     9
100
AcDbLine
 10
-29.60000047683719
 20
-7.840004107029778
 30
0.0
 11
-29.60000047683719
 21
-2.840004107029778
 31
0.0
  0
INSERT
  5
AD
330
56
100
AcDbEntity
  8
0
 62
     9
100
AcDbBlockReference
  2
_OPEN30
 10
-29.60000047683719
 20
-2.840004107029778
 30
0.0
 41
3.000002787824364
 42
2.999989273978464
 50
90.0
  0
TEXT
  5
AE
330
56
100
AcDbEntity
  8
0
 62
     7
100
AcDbText
 10
-30.60000047683719
 20
8.159995892970251
 30
0.0
 40
4.0
  1
3.5
 50
90.0
 41
0.8000000000000002
  7
FDASTYLE0
 72
     5
 11
-30.60000047683719
 21
17.75999589297025
 31
0.0
100
AcDbText
  0
TEXT
  5
AF
330
56
100
AcDbEntity
  8
0
 62
     7
100
AcDbText
 10
-33.20000047683719
 20
18.75999589297025
 30
0.0
 40
2.6
  1
±0.15
 50
90.0
 41
0.7692307692307692
  7
FDASTYLE0
 72
     5
 11
-33.20000047683719
 21
29.15999589297025
 31
0.0
100
AcDbText
  0
ENDBLK
  5
58
330
56
100
AcDbEntity
  8
0
100
AcDbBlockEnd
  0
BLOCK
  5
5A
330
59
100
AcDbEntity
  8
0
100
AcDbBlockBegin
  2
DA_IMAGEDIMGROUP_6
 70
     0
 71
     0
 10
0.0
 20
0.0
 30
0.0
  3
DA_IMAGEDIMGROUP_6
  1

  0
LINE
  5
B0
330
59
100
AcDbEntity
  8
0
  6
CONTINUOUS
 62
     9
100
AcDbLine
 10
-10.4500004768372
 20
-2.840004107029778
 30
0.0
 11
-40.60000047683719
 21
-2.840004107029778
 31
0.0
  0
LINE
  5
B1
330
59
100
AcDbEntity
  8
0
  6
CONTINUOUS
 62
     9
100
AcDbLine
 10
-4.000000476837165
 20
1.159995892970223
 30
0.0
 11
-40.60000047683719
 21
1.159995892970223
 31
0.0
  0
LINE
  5
B2
330
59
100
AcDbEntity
  8
0
  6
CONTINUOUS
 62
     9
100
AcDbLine
 10
-39.60000047683719
 20
-2.840004107029778
 30
0.0
 11
-39.60000047683719
 21
1.159995892970223
 31
0.0
  0
LINE
  5
B3
330
59
100
AcDbEntity
  8
0
  6
CONTINUOUS
 62
     9
100
AcDbLine
 10
-39.60000047683719
 20
29.03999589297025
 30
0.0
 11
-39.60000047683719
 21
1.159995892970223
 31
0.0
  0
INSERT
  5
B4
330
59
100
AcDbEntity
  8
0
 62
     9
100
AcDbBlockReference
  2
_OPEN30
 10
-39.60000047683719
 20
1.159995892970223
 30
0.0
 41
3.000002787824364
 42
2.999989273978464
 50
270.0
  0
LINE
  5
B5
330
59
100
AcDbEntity
  8
0
  6
CONTINUOUS
 62
     9
100
AcDbLine
 10
-39.60000047683719
 20
-7.840004107029778
 30
0.0
 11
-39.60000047683719
 21
-2.840004107029778
 31
0.0
  0
INSERT
  5
B6
330
59
100
AcDbEntity
  8
0
 62
     9
100
AcDbBlockReference
  2
_OPEN30
 10
-39.60000047683719
 20
-2.840004107029778
 30
0.0
 41
3.000002787824364
 42
2.999989273978464
 50
90.0
  0
TEXT
  5
B7
330
59
100
AcDbEntity
  8
0
 62
     7
100
AcDbText
 10
-40.60000047683719
 20
8.159995892970251
 30
0.0
 40
4.0
  1
φ4
 50
90.0
 41
0.7272727272727271
  7
FDASTYLE0
 72
     5
 11
-40.60000047683719
 21
14.55999589297025
 31
0.0
100
AcDbText
  0
TEXT
  5
B8
330
59
100
AcDbEntity
  8
0
 62
     7
100
AcDbText
 10
-43.20000047683718
 20
15.55999589297025
 30
0.0
 40
2.6
  1
+0.005
 50
90.0
 41
0.7999999999999999
  7
FDASTYLE0
 72
     5
 11
-43.20000047683718
 21
28.03999589297025
 31
0.0
100
AcDbText
  0
TEXT
  5
B9
330
59
100
AcDbEntity
  8
0
 62
     7
100
AcDbText
 10
-40.40000047683719
 20
15.55999589297025
 30
0.0
 40
2.6
  1
-0.015
 50
90.0
 41
0.7999999999999999
  7
FDASTYLE0
 72
     5
 11
-40.40000047683719
 21
28.03999589297025
 31
0.0
100
AcDbText
  0
ENDBLK
  5
5B
330
59
100
AcDbEntity
  8
0
100
AcDbBlockEnd
  0
BLOCK
  5
5D
330
5C
100
AcDbEntity
  8
0
100
AcDbBlockBegin
  2
DA_IMAGEDIMGROUP_7
 70
     0
 71
     0
 10
0.0
 20
0.0
 30
0.0
  3
DA_IMAGEDIMGROUP_7
  1

  0
LINE
  5
BA
330
5C
100
AcDbEntity
  8
0
  6
CONTINUOUS
 62
     9
100
AcDbLine
 10
-2.100000476837217
 20
-4.840004107029749
 30
0.0
 11
-50.60000047683717
 21
-4.840004107029749
 31
0.0
  0
LINE
  5
BB
330
5C
100
AcDbEntity
  8
0
  6
CONTINUOUS
 62
     9
100
AcDbLine
 10
-2.100000476837188
 20
3.159995892970251
 30
0.0
 11
-50.60000047683717
 21
3.159995892970251
 31
0.0
  0
LINE
  5
BC
330
5C
100
AcDbEntity
  8
0
  6
CONTINUOUS
 62
     9
100
AcDbLine
 10
-49.60000047683719
 20
-4.840004107029749
 30
0.0
 11
-49.60000047683719
 21
3.159995892970251
 31
0.0
  0
INSERT
  5
BD
330
5C
100
AcDbEntity
  8
0
 62
     9
100
AcDbBlockReference
  2
_OPEN30
 10
-49.60000047683719
 20
-4.840004107029749
 30
0.0
 41
3.000002787824364
 42
2.999989273978464
 50
270.0
  0
INSERT
  5
BE
330
5C
100
AcDbEntity
  8
0
 62
     9
100
AcDbBlockReference
  2
_OPEN30
 10
-49.60000047683719
 20
3.159995892970251
 30
0.0
 41
3.000002787824364
 42
2.999989273978464
 50
90.0
  0
TEXT
  5
BF
330
5C
100
AcDbEntity
  8
0
 62
     7
100
AcDbText
 10
-50.60000047683717
 20
-4.040004107029752
 30
0.0
 40
4.0
  1
φ8
 50
90.0
 41
0.7272727272727279
  7
FDASTYLE0
 72
     5
 11
-50.60000047683717
 21
2.359995892970254
 31
0.0
100
AcDbText
  0
ENDBLK
  5
5E
330
5C
100
AcDbEntity
  8
0
100
AcDbBlockEnd
  0
BLOCK
  5
60
330
5F
100
AcDbEntity
  8
0
100
AcDbBlockBegin
  2
DA_IMAGEDIMGROUP_8
 70
     0
 71
     0
 10
0.0
 20
0.0
 30
0.0
  3
DA_IMAGEDIMGROUP_8
  1

  0
LINE
  5
C0
330
5F
100
AcDbEntity
  8
0
  6
CONTINUOUS
 62
     9
100
AcDbLine
 10
0.4999995231628205
 20
-8.840004107029756
 30
0.0
 11
-60.60000047683717
 21
-8.840004107029756
 31
0.0
  0
LINE
  5
C1
330
5F
100
AcDbEntity
  8
0
  6
CONTINUOUS
 62
     9
100
AcDbLine
 10
0.4999995231628205
 20
7.159995892970251
 30
0.0
 11
-60.60000047683717
 21
7.159995892970251
 31
0.0
  0
LINE
  5
C2
330
5F
100
AcDbEntity
  8
0
  6
CONTINUOUS
 62
     9
100
AcDbLine
 10
-59.60000047683717
 20
-8.840004107029756
 30
0.0
 11
-59.60000047683717
 21
7.159995892970251
 31
0.0
  0
INSERT
  5
C3
330
5F
100
AcDbEntity
  8
0
 62
     9
100
AcDbBlockReference
  2
_OPEN30
 10
-59.60000047683717
 20
-8.840004107029756
 30
0.0
 41
3.000002787824364
 42
2.999989273978464
 50
270.0
  0
INSERT
  5
C4
330
5F
100
AcDbEntity
  8
0
 62
     9
100
AcDbBlockReference
  2
_OPEN30
 10
-59.60000047683717
 20
7.159995892970251
 30
0.0
 41
3.000002787824364
 42
2.999989273978464
 50
90.0
  0
TEXT
  5
C5
330
5F
100
AcDbEntity
  8
0
 62
     7
100
AcDbText
 10
-60.60000047683717
 20
-10.30000410702976
 30
0.0
 40
4.0
  1
φ16
 50
90.0
 41
0.7500000000000007
  7
FDASTYLE0
 72
     5
 11
-60.60000047683717
 21
-0.7000041070297485
 31
0.0
100
AcDbText
  0
TEXT
  5
C6
330
5F
100
AcDbEntity
  8
0
 62
     7
100
AcDbText
 10
-63.20000047683717
 20
0.2999958929702515
 30
0.0
 40
2.6
  1
±0.2
 50
90.0
 41
0.7619047619047619
  7
FDASTYLE0
 72
     5
 11
-63.20000047683717
 21
8.619995892970252
 31
0.0
100
AcDbText
  0
ENDBLK
  5
61
330
5F
100
AcDbEntity
  8
0
100
AcDbBlockEnd
  0
BLOCK
  5
63
330
62
100
AcDbEntity
  8
0
100
AcDbBlockBegin
  2
DC_GROUP_2
 70
     0
 71
     0
 10
0.0
 20
0.0
 30
0.0
  3
DC_GROUP_2
  1

  0
LINE
  5
C7
330
62
100
AcDbEntity
  8
0
  6
CONTINUOUS
 62
     9
100
AcDbLine
 10
74.15127663397396
 20
-5.506686117196224
 30
0.0
 11
69.60000047683714
 21
-17.34000431564604
 31
0.0
  0
INSERT
  5
C8
330
62
100
AcDbEntity
  8
0
 62
     9
100
AcDbBlockReference
  2
_OPEN30
 10
74.15127663397396
 20
-5.506686117196224
 30
0.0
 41
3.000002787824364
 42
2.999989273978464
 50
68.96248928264087
  0
LINE
  5
C9
330
62
100
AcDbEntity
  8
0
  6
CONTINUOUS
 62
     9
100
AcDbLine
 10
69.60000047683714
 20
-17.34000431564604
 30
0.0
 11
47.20000047683714
 21
-17.34000431564604
 31
0.0
  0
TEXT
  5
CA
330
62
100
AcDbEntity
  8
0
 62
     7
100
AcDbText
 10
47.20000047683713
 20
-16.34000431564604
 30
0.0
 40
4.0
  1
(＋)MARK
 41
0.7777777777777779
  7
FDASTYLE0
 72
     5
 11
69.60000047683714
 21
-16.34000431564604
 31
0.0
100
AcDbText
  0
ENDBLK
  5
64
330
62
100
AcDbEntity
  8
0
100
AcDbBlockEnd
  0
BLOCK
  5
66
330
65
100
AcDbEntity
  8
0
100
AcDbBlockBegin
  2
DA_IMAGEDIMGROUP_9
 70
     0
 71
     0
 10
0.0
 20
0.0
 30
0.0
  3
DA_IMAGEDIMGROUP_9
  1

  0
LINE
  5
CB
330
65
100
AcDbEntity
  8
0
  6
CONTINUOUS
 62
     9
100
AcDbLine
 10
35.99999952316281
 20
-9.34000431564604
 30
0.0
 11
35.99999952316281
 21
7.659995684353952
 31
0.0
  0
LINE
  5
CC
330
65
100
AcDbEntity
  8
0
  6
CONTINUOUS
 62
     9
100
AcDbLine
 10
35.99999952316281
 20
-30.15999589297024
 30
0.0
 11
35.99999952316281
 21
-9.34000431564604
 31
0.0
  0
INSERT
  5
CD
330
65
100
AcDbEntity
  8
0
 62
     9
100
AcDbBlockReference
  2
_OPEN30
 10
35.99999952316281
 20
-9.34000431564604
 30
0.0
 41
3.000002787824364
 42
2.999989273978464
 50
90.0
  0
LINE
  5
CE
330
65
100
AcDbEntity
  8
0
  6
CONTINUOUS
 62
     9
100
AcDbLine
 10
35.99999952316281
 20
12.65999568435395
 30
0.0
 11
35.99999952316281
 21
7.659995684353952
 31
0.0
  0
INSERT
  5
CF
330
65
100
AcDbEntity
  8
0
 62
     9
100
AcDbBlockReference
  2
_OPEN30
 10
35.99999952316281
 20
7.659995684353952
 30
0.0
 41
3.000002787824364
 42
2.999989273978464
 50
270.0
  0
TEXT
  5
D0
330
65
100
AcDbEntity
  8
0
 62
     7
100
AcDbText
 10
34.99999952316281
 20
-29.15999589297024
 30
0.0
 40
4.0
  1
φ17
 50
90.0
 41
0.7500000000000001
  7
FDASTYLE0
 72
     5
 11
34.99999952316281
 21
-19.55999589297024
 31
0.0
100
AcDbText
  0
TEXT
  5
D1
330
65
100
AcDbEntity
  8
0
 62
     7
100
AcDbText
 10
32.39999952316281
 20
-18.55999589297024
 30
0.0
 40
2.6
  1
±0.2
 50
90.0
 41
0.7619047619047619
  7
FDASTYLE0
 72
     5
 11
32.39999952316281
 21
-10.23999589297024
 31
0.0
100
AcDbText
  0
ENDBLK
  5
67
330
65
100
AcDbEntity
  8
0
100
AcDbBlockEnd
  0
BLOCK
  5
69
330
68
100
AcDbEntity
  8
0
100
AcDbBlockBegin
  2
DC_GROUP_3
 70
     0
 71
     0
 10
0.0
 20
0.0
 30
0.0
  3
DC_GROUP_3
  1

  0
LINE
  5
D2
330
68
100
AcDbEntity
  8
0
  6
CONTINUOUS
 62
     9
100
AcDbLine
 10
-84.21759769823468
 20
-1.616145778066557
 30
0.0
 11
-86.60000047683717
 21
-17.34000431564604
 31
0.0
  0
INSERT
  5
D3
330
68
100
AcDbEntity
  8
0
 62
     9
100
AcDbBlockReference
  2
_OPEN30
 10
-84.21759769823468
 20
-1.616145778066557
 30
0.0
 41
3.000002787824364
 42
2.999989273978464
 50
81.38435192313236
  0
LINE
  5
D4
330
68
100
AcDbEntity
  8
0
  6
CONTINUOUS
 62
     9
100
AcDbLine
 10
-86.60000047683717
 20
-17.34000431564604
 30
0.0
 11
-13.00000047683715
 21
-17.34000431564604
 31
0.0
  0
TEXT
  5
D5
330
68
100
AcDbEntity
  8
0
 62
     7
100
AcDbText
 10
-86.60000047683717
 20
-16.34000431564604
 30
0.0
 40
4.0
  1
　2-M2(P=0.4)×DEPTH　3MAX
 41
0.7796610169491526
  7
FDASTYLE0
 72
     5
 11
-13.00000047683716
 21
-16.34000431564604
 31
0.0
100
AcDbText
  0
ENDBLK
  5
6A
330
68
100
AcDbEntity
  8
0
100
AcDbBlockEnd
  0
BLOCK
  5
6C
330
6B
100
AcDbEntity
  8
0
100
AcDbBlockBegin
  2
DA_IMAGEDIMGROUP_10
 70
     0
 71
     0
 10
0.0
 20
0.0
 30
0.0
  3
DA_IMAGEDIMGROUP_10
  1

  0
LINE
  5
D6
330
6B
100
AcDbEntity
  8
0
  6
CONTINUOUS
 62
     9
100
AcDbLine
 10
51.60000047683715
 20
5.059995779721398
 30
0.0
 11
51.60000047683715
 21
24.65999568435395
 31
0.0
  0
LINE
  5
D7
330
6B
100
AcDbEntity
  8
0
  6
CONTINUOUS
 62
     9
100
AcDbLine
 10
46.59999952316282
 20
7.223231689336835
 30
0.0
 11
46.59999952316282
 21
24.65999568435395
 31
0.0
  0
LINE
  5
D8
330
6B
100
AcDbEntity
  8
0
  6
CONTINUOUS
 62
     9
100
AcDbLine
 10
46.59999952316282
 20
23.65999568435395
 30
0.0
 11
51.60000047683715
 21
23.65999568435395
 31
0.0
  0
LINE
  5
D9
330
6B
100
AcDbEntity
  8
0
  6
CONTINUOUS
 62
     9
100
AcDbLine
 10
56.60000047683715
 20
23.65999568435395
 30
0.0
 11
51.60000047683715
 21
23.65999568435395
 31
0.0
  0
INSERT
  5
DA
330
6B
100
AcDbEntity
  8
0
 62
     9
100
AcDbBlockReference
  2
_OPEN30
 10
51.60000047683715
 20
23.65999568435395
 30
0.0
 41
3.000002787824364
 42
2.999989273978464
 50
180.0
  0
LINE
  5
DB
330
6B
100
AcDbEntity
  8
0
  6
CONTINUOUS
 62
     9
100
AcDbLine
 10
41.59999952316282
 20
23.65999568435395
 30
0.0
 11
46.59999952316282
 21
23.65999568435395
 31
0.0
  0
INSERT
  5
DC
330
6B
100
AcDbEntity
  8
0
 62
     9
100
AcDbBlockReference
  2
_OPEN30
 10
46.59999952316282
 20
23.65999568435395
 30
0.0
 41
3.000002787824364
 42
2.999989273978464
 50
360.0
  0
TEXT
  5
DD
330
6B
100
AcDbEntity
  8
0
 62
     7
100
AcDbText
 10
47.49999999999998
 20
24.65999568435395
 30
0.0
 40
4.0
  1
5
 41
0.8000000000000007
  7
FDASTYLE0
 72
     5
 11
50.69999999999998
 21
24.65999568435395
 31
0.0
100
AcDbText
  0
ENDBLK
  5
6D
330
6B
100
AcDbEntity
  8
0
100
AcDbBlockEnd
  0
BLOCK
  5
72
330
71
100
AcDbEntity
  8
0
100
AcDbBlockBegin
  2
_OPEN30
 70
     0
 71
     0
 10
0.0
 20
0.0
 30
0.0
  3
_OPEN30
  1

  0
LINE
  5
74
330
71
100
AcDbEntity
  8
0
  6
BYBLOCK
 62
     0
100
AcDbLine
 10
-1.0
 20
0.267949
 30
0.0
 11
0.0
 21
0.0
 31
0.0
  0
LINE
  5
75
330
71
100
AcDbEntity
  8
0
  6
BYBLOCK
 62
     0
100
AcDbLine
 10
0.0
 20
0.0
 30
0.0
 11
-1.0
 21
-0.267949
 31
0.0
  0
LINE
  5
76
330
71
100
AcDbEntity
  8
0
  6
BYBLOCK
 62
     0
100
AcDbLine
 10
0.0
 20
0.0
 30
0.0
 11
-1.0
 21
0.0
 31
0.0
  0
ENDBLK
  5
73
330
71
100
AcDbEntity
  8
0
100
AcDbBlockEnd
  0
BLOCK
  5
8B
330
8A
100
AcDbEntity
  8
0
100
AcDbBlockBegin
  2
_DOT
 70
     0
 71
     0
 10
0.0
 20
0.0
 30
0.0
  3
_DOT
  1

  0
LWPOLYLINE
  5
8D
330
8A
100
AcDbEntity
  8
0
  6
BYBLOCK
 62
     0
100
AcDbPolyline
 90
        2
 70
     1
 43
0.5
 10
-0.25
 20
0.0
 42
1.0
 10
0.25
 20
0.0
 42
1.0
  0
LINE
  5
8E
330
8A
100
AcDbEntity
  8
0
  6
BYBLOCK
 62
     0
100
AcDbLine
 10
-0.5
 20
0.0
 30
0.0
 11
-1.0
 21
0.0
 31
0.0
  0
ENDBLK
  5
8C
330
8A
100
AcDbEntity
  8
0
100
AcDbBlockEnd
  0
ENDSEC
  0
SECTION
  2
ENTITIES
  0
LINE
  5
DE
330
1F
100
AcDbEntity
  8
0
  6
CONTINUOUS
 62
     3
100
AcDbLine
 10
45.39999952316283
 20
-8.340004184515834
 30
0.0
 11
46.59999952316284
 21
-7.903239903396397
 31
0.0
  0
LINE
  5
DF
330
1F
100
AcDbEntity
  8
0
  6
CONTINUOUS
 62
     3
100
AcDbLine
 10
46.59999952316284
 20
-7.903239903396397
 30
0.0
 11
46.59999952316282
 21
6.223231689336835
 31
0.0
  0
LINE
  5
E0
330
1F
100
AcDbEntity
  8
0
  6
CONTINUOUS
 62
     3
100
AcDbLine
 10
45.39999952316283
 20
6.659995970456258
 30
0.0
 11
46.59999952316282
 21
6.223231689336835
 31
0.0
  0
LINE
  5
E1
330
1F
100
AcDbEntity
  8
0
  6
CONTINUOUS
 62
     3
100
AcDbLine
 10
42.39999952316279
 20
7.659995684353955
 30
0.0
 11
45.39999952316279
 21
7.131014742228572
 31
0.0
  0
LINE
  5
E2
330
1F
100
AcDbEntity
  8
0
  6
CONTINUOUS
 62
     3
100
AcDbLine
 10
42.39999952316278
 20
-9.340004315646034
 30
0.0
 11
45.39999952316279
 21
-8.811023373520634
 31
0.0
  0
LINE
  5
E3
330
1F
100
AcDbEntity
  8
0
  6
CONTINUOUS
 62
     3
100
AcDbLine
 10
21.79999952316283
 20
7.659995684353941
 30
0.0
 11
42.39999952316279
 21
7.659995684353955
 31
0.0
  0
LINE
  5
E4
330
1F
100
AcDbEntity
  8
0
  6
CONTINUOUS
 62
     3
100
AcDbLine
 10
42.39999952316278
 20
-9.340004315646034
 30
0.0
 11
21.79999952316283
 21
-9.340004315646056
 31
0.0
  0
LINE
  5
E5
330
1F
100
AcDbEntity
  8
0
  6
CONTINUOUS
 62
     3
100
AcDbLine
 10
42.39999952316279
 20
7.659995684353955
 30
0.0
 11
45.39999952316279
 21
7.131014742228572
 31
0.0
  0
LINE
  5
E6
330
1F
100
AcDbEntity
  8
0
  6
CONTINUOUS
 62
     3
100
AcDbLine
 10
42.39999952316278
 20
-9.340004315646034
 30
0.0
 11
45.39999952316279
 21
-8.811023373520634
 31
0.0
  0
LINE
  5
E7
330
1F
100
AcDbEntity
  8
0
  6
CONTINUOUS
 62
     3
100
AcDbLine
 10
21.59999952316283
 20
-9.140004315646053
 30
0.0
 11
21.59999952316283
 21
7.459995684353952
 31
0.0
  0
LINE
  5
E8
330
1F
100
AcDbEntity
  8
0
  6
CONTINUOUS
 62
     3
100
AcDbLine
 10
45.39999952316279
 20
7.131014742228572
 30
0.0
 11
45.39999952316279
 21
-8.811023373520634
 31
0.0
  0
LINE
  5
E9
330
1F
100
AcDbEntity
  8
0
  6
CONTINUOUS
 62
     3
100
AcDbLine
 10
42.39999952316279
 20
7.659995684353955
 30
0.0
 11
42.39999952316279
 21
-9.340004315646034
 31
0.0
  0
LINE
  5
EA
330
1F
100
AcDbEntity
  8
0
  6
CONTINUOUS
 62
     3
100
AcDbLine
 10
21.59999952316283
 20
7.459995684353952
 30
0.0
 11
21.79999952316283
 21
7.659995684353941
 31
0.0
  0
LINE
  5
EB
330
1F
100
AcDbEntity
  8
0
  6
CONTINUOUS
 62
     3
100
AcDbLine
 10
21.59999952316283
 20
-9.140004315646053
 30
0.0
 11
21.79999952316283
 21
-9.340004315646056
 31
0.0
  0
CIRCLE
  5
EC
330
1F
100
AcDbEntity
  8
0
  6
CONTINUOUS
 62
     3
100
AcDbCircle
 10
-72.10000047683717
 20
-0.8400041070297561
 30
0.0
 40
0.7849999999999966
  0
CIRCLE
  5
ED
330
1F
100
AcDbEntity
  8
0
  6
CONTINUOUS
 62
     3
100
AcDbCircle
 10
-84.10000047683717
 20
-0.8400041070298983
 30
0.0
 40
0.7849999999999966
  0
CIRCLE
  5
EE
330
1F
100
AcDbEntity
  8
0
  6
CONTINUOUS
 62
     3
100
AcDbCircle
 10
-78.10000047683717
 20
-0.840004107029813
 30
0.0
 40
3.999999999999999
  0
CIRCLE
  5
EF
330
1F
100
AcDbEntity
  8
0
  6
CONTINUOUS
 62
     3
100
AcDbCircle
 10
-78.10000047683725
 20
-0.8400041070297775
 30
0.0
 40
2.0
  0
LINE
  5
F0
330
1F
100
AcDbEntity
  8
0
  6
CONTINUOUS
 62
     3
100
AcDbLine
 10
-76.36794966926833
 20
0.1599958929702225
 30
0.0
 11
-76.09453918326896
 21
0.3178495106613468
 31
0.0
  0
LINE
  5
F1
330
1F
100
AcDbEntity
  8
0
  6
CONTINUOUS
 62
     3
100
AcDbLine
 10
-76.36794966926836
 20
-1.840004107029778
 30
0.0
 11
-76.09453918326882
 21
-1.997857724720646
 31
0.0
  0
LINE
  5
F2
330
1F
100
AcDbEntity
  8
0
  6
CONTINUOUS
 62
     3
100
AcDbLine
 10
-78.10000047683725
 20
-2.840004107029778
 30
0.0
 11
-78.10000047683725
 21
-3.155711342411657
 31
0.0
  0
LINE
  5
F3
330
1F
100
AcDbEntity
  8
0
  6
CONTINUOUS
 62
     3
100
AcDbLine
 10
-78.10000047683725
 20
1.159995892970223
 30
0.0
 11
-78.10000047683725
 21
1.475703128352109
 31
0.0
  0
ARC
  5
F4
330
1F
100
AcDbEntity
  8
0
  6
CONTINUOUS
 62
     3
100
AcDbCircle
 10
-78.10000047683725
 20
-0.8400041070297704
 30
0.0
 40
3.5
100
AcDbArc
 50
212.2182484636974
 51
507.7817515363018
  0
ARC
  5
F5
330
1F
100
AcDbEntity
  8
0
  6
CONTINUOUS
 62
     3
100
AcDbCircle
 10
-78.10000047683725
 20
-0.8400041070297704
 30
0.0
 40
2.75
100
AcDbArc
 50
279.8001899451123
 51
320.1998100548931
  0
ARC
  5
F6
330
1F
100
AcDbEntity
  8
0
  6
CONTINUOUS
 62
     3
100
AcDbCircle
 10
-78.10000047683725
 20
-0.8400041070297704
 30
0.0
 40
2.75
100
AcDbArc
 50
39.8001899451138
 51
80.19981005488765
  0
LINE
  5
F7
330
1F
100
AcDbEntity
  8
0
  6
CONTINUOUS
 62
     3
100
AcDbLine
 10
-80.8262006484225
 20
0.426377412214201
 30
0.0
 11
-79.83205128440612
 21
0.1599958929701799
 31
0.0
  0
LINE
  5
F8
330
1F
100
AcDbEntity
  8
0
  6
CONTINUOUS
 62
     3
100
AcDbLine
 10
-80.82620064842301
 20
-2.106385626273976
 30
0.0
 11
-79.83205128440609
 21
-1.840004107029827
 31
0.0
  0
ARC
  5
F9
330
1F
100
AcDbEntity
  8
0
  6
CONTINUOUS
 62
     3
100
AcDbCircle
 10
-80.7226730303815
 20
0.812747742729826
 30
0.0
 40
0.4
100
AcDbArc
 50
147.7817515363026
 51
255.0000000000013
  0
ARC
  5
FA
330
1F
100
AcDbEntity
  8
0
  6
CONTINUOUS
 62
     3
100
AcDbCircle
 10
-80.72267303038201
 20
-2.492755956789601
 30
0.0
 40
0.4
100
AcDbArc
 50
105.0000000000008
 51
212.2182484637017
  0
ARC
  5
FB
330
1F
100
AcDbEntity
  8
0
  6
CONTINUOUS
 62
     3
100
AcDbCircle
 10
-77.70000047683725
 20
1.475703128352109
 30
0.0
 40
0.4
100
AcDbArc
 50
80.1998100548895
 51
180.0
  0
ARC
  5
FC
330
1F
100
AcDbEntity
  8
0
  6
CONTINUOUS
 62
     3
100
AcDbCircle
 10
-76.29453918326895
 20
0.6642596721751275
 30
0.0
 40
0.4
100
AcDbArc
 50
299.9999999999982
 51
399.8001899451167
  0
ARC
  5
FD
330
1F
100
AcDbEntity
  8
0
  6
CONTINUOUS
 62
     3
100
AcDbCircle
 10
-76.29453918326884
 20
-2.34426788623442
 30
0.0
 40
0.4
100
AcDbArc
 50
320.1998100548926
 51
419.9999999999998
  0
ARC
  5
FE
330
1F
100
AcDbEntity
  8
0
  6
CONTINUOUS
 62
     3
100
AcDbCircle
 10
-77.70000047683725
 20
-3.155711342411657
 30
0.0
 40
0.4
100
AcDbArc
 50
180.0
 51
279.80018994511
  0
LINE
  5
FF
330
1F
100
AcDbEntity
  8
0
  6
CONTINUOUS
 62
     3
100
AcDbLine
 10
-76.77712482130492
 20
0.6599958929701799
 30
0.0
 11
-79.42287613236961
 21
0.6599958929701799
 31
0.0
  0
LINE
  5
100
330
1F
100
AcDbEntity
  8
0
  6
CONTINUOUS
 62
     3
100
AcDbLine
 10
-1.500000476837194
 20
2.909995892970208
 30
0.0
 11
-1.500000476837208
 21
-4.590004107029792
 31
0.0
  0
LINE
  5
101
330
1F
100
AcDbEntity
  8
0
  6
CONTINUOUS
 62
     3
100
AcDbLine
 10
-1.500000476837208
 20
-4.440004107029743
 30
0.0
 11
-1.100000476837217
 21
-4.840004107029749
 31
0.0
  0
LINE
  5
102
330
1F
100
AcDbEntity
  8
0
  6
CONTINUOUS
 62
     3
100
AcDbLine
 10
-1.500000476837194
 20
2.759995892970252
 30
0.0
 11
-1.100000476837188
 21
3.159995892970251
 31
0.0
  0
LINE
  5
103
330
1F
100
AcDbEntity
  8
0
  6
CONTINUOUS
 62
     3
100
AcDbLine
 10
-9.600000476837181
 20
0.6599958929702439
 30
0.0
 11
-9.600000476837195
 21
-2.690004107029779
 31
0.0
  0
LINE
  5
104
330
1F
100
AcDbEntity
  8
0
  6
CONTINUOUS
 62
     3
100
AcDbLine
 10
1.499999523162821
 20
7.159995892970251
 30
0.0
 11
0.9999995231628205
 21
6.659995892970251
 31
0.0
  0
LINE
  5
105
330
1F
100
AcDbEntity
  8
0
  6
CONTINUOUS
 62
     3
100
AcDbLine
 10
1.499999523162821
 20
-8.840004107029756
 30
0.0
 11
0.9999995231628205
 21
-8.340004107029756
 31
0.0
  0
LINE
  5
106
330
1F
100
AcDbEntity
  8
0
  6
CONTINUOUS
 62
     3
100
AcDbLine
 10
0.9999995231628205
 20
6.659995892970251
 30
0.0
 11
0.9999995231628205
 21
-8.340004107029756
 31
0.0
  0
LINE
  5
107
330
1F
100
AcDbEntity
  8
0
  6
CONTINUOUS
 62
     3
100
AcDbLine
 10
0.9999995231628205
 20
3.159995892970251
 30
0.0
 11
-1.100000476837188
 21
3.159995892970251
 31
0.0
  0
LINE
  5
108
330
1F
100
AcDbEntity
  8
0
  6
CONTINUOUS
 62
     3
100
AcDbLine
 10
0.9999995231628205
 20
-4.840004107029756
 30
0.0
 11
-1.100000476837217
 21
-4.840004107029749
 31
0.0
  0
LINE
  5
109
330
1F
100
AcDbEntity
  8
0
  6
CONTINUOUS
 62
     3
100
AcDbLine
 10
-2.00000047683718
 20
-4.590004107029792
 30
0.0
 11
-2.00000047683718
 21
2.909995892970208
 31
0.0
  0
LINE
  5
10A
330
1F
100
AcDbEntity
  8
0
  6
CONTINUOUS
 62
     3
100
AcDbLine
 10
-2.600000476837188
 20
2.659995892970294
 30
0.0
 11
-2.600000476837188
 21
-4.340004107029706
 31
0.0
  0
LINE
  5
10B
330
1F
100
AcDbEntity
  8
0
  6
CONTINUOUS
 62
     3
100
AcDbLine
 10
-2.600000476837188
 20
2.659995892970294
 30
0.0
 11
-2.00000047683718
 21
2.659995892970294
 31
0.0
  0
LINE
  5
10C
330
1F
100
AcDbEntity
  8
0
  6
CONTINUOUS
 62
     3
100
AcDbLine
 10
-2.600000476837174
 20
-4.340004107029706
 30
0.0
 11
-2.00000047683718
 21
-4.340004107029706
 31
0.0
  0
LINE
  5
10D
330
1F
100
AcDbEntity
  8
0
  6
CONTINUOUS
 62
     3
100
AcDbLine
 10
-9.450000476837204
 20
-2.840004107029778
 30
0.0
 11
-2.600000476837188
 21
-2.840004107029778
 31
0.0
  0
LINE
  5
10E
330
1F
100
AcDbEntity
  8
0
  6
CONTINUOUS
 62
     3
100
AcDbLine
 10
-3.000000476837165
 20
1.159995892970223
 30
0.0
 11
-2.600000476837188
 21
1.159995892970223
 31
0.0
  0
LINE
  5
10F
330
1F
100
AcDbEntity
  8
0
  6
CONTINUOUS
 62
     3
100
AcDbLine
 10
-3.000000476837165
 20
0.6599958929702225
 30
0.0
 11
-9.600000476837195
 21
0.6599958929702225
 31
0.0
  0
LINE
  5
110
330
1F
100
AcDbEntity
  8
0
  6
CONTINUOUS
 62
     3
100
AcDbLine
 10
-3.000000476837165
 20
1.159995892970223
 30
0.0
 11
-3.000000476837165
 21
0.6599958929702225
 31
0.0
  0
LINE
  5
111
330
1F
100
AcDbEntity
  8
0
  6
CONTINUOUS
 62
     3
100
AcDbLine
 10
-1.500000476837194
 20
2.909995892970208
 30
0.0
 11
-2.00000047683718
 21
2.909995892970208
 31
0.0
  0
LINE
  5
112
330
1F
100
AcDbEntity
  8
0
  6
CONTINUOUS
 62
     3
100
AcDbLine
 10
-1.500000476837208
 20
-4.590004107029792
 30
0.0
 11
-2.00000047683718
 21
-4.590004107029792
 31
0.0
  0
LINE
  5
113
330
1F
100
AcDbEntity
  8
0
  6
CONTINUOUS
 62
     3
100
AcDbLine
 10
-9.600000476837195
 20
-2.690004107029779
 30
0.0
 11
-9.450000476837204
 21
-2.840004107029778
 31
0.0
  0
LINE
  5
114
330
1F
100
AcDbEntity
  8
0
  6
CONTINUOUS
 62
     3
100
AcDbLine
 10
21.49999952316283
 20
-8.84000410702977
 30
0.0
 11
1.499999523162821
 21
-8.840004107029756
 31
0.0
  0
LINE
  5
115
330
1F
100
AcDbEntity
  8
0
  6
CONTINUOUS
 62
     3
100
AcDbLine
 10
21.49999952316283
 20
7.159995892970223
 30
0.0
 11
1.499999523162821
 21
7.15999589297023
 31
0.0
  0
LINE
  5
116
330
1F
100
AcDbEntity
  8
0
  6
CONTINUOUS
 62
     3
100
AcDbLine
 10
20.31436355637958
 20
3.590178220233447
 30
0.0
 11
19.08563548994609
 21
2.729813565706877
 31
0.0
  0
LINE
  5
117
330
1F
100
AcDbEntity
  8
0
  6
CONTINUOUS
 62
     3
100
AcDbLine
 10
19.08563548994609
 20
3.590178220233455
 30
0.0
 11
20.31436355637958
 21
2.729813565706877
 31
0.0
  0
ELLIPSE
  5
118
330
1F
100
AcDbEntity
  8
0
  6
CONTINUOUS
 62
     3
100
AcDbEllipse
 10
19.69999952316284
 20
3.159995892970166
 30
0.0
 11
-1.0
 21
0.0
 31
0.0
210
0.0
220
0.0
230
1.0
 40
0.8
 41
0.0
 42
6.283185307179586
  0
LINE
  5
119
330
1F
100
AcDbEntity
  8
0
  6
CONTINUOUS
 62
     3
100
AcDbLine
 10
21.49999952316283
 20
7.159995892970223
 30
0.0
 11
21.49999952316283
 21
-8.84000410702977
 31
0.0
  0
LINE
  5
11A
330
1F
100
AcDbEntity
  8
0
  6
CONTINUOUS
 62
     3
100
AcDbLine
 10
21.59999952316283
 20
6.559995892970228
 30
0.0
 11
21.49999952316283
 21
6.559995892970228
 31
0.0
  0
LINE
  5
11B
330
1F
100
AcDbEntity
  8
0
  6
CONTINUOUS
 62
     3
100
AcDbLine
 10
21.59999952316284
 20
-8.240004107029783
 30
0.0
 11
21.49999952316284
 21
-8.240004107029783
 31
0.0
  0
CIRCLE
  5
11C
330
1F
100
AcDbEntity
  8
0
  6
CONTINUOUS
 62
     3
100
AcDbCircle
 10
-78.10000047683717
 20
-0.8400041070298272
 30
0.0
 40
8.5
  0
LINE
  5
11D
330
1F
100
AcDbEntity
  8
0
  6
CONTINUOUS
 62
     3
100
AcDbLine
 10
46.59999952316283
 20
5.159995892970223
 30
0.0
 11
47.19999952316284
 21
5.159995892970223
 31
0.0
  0
LINE
  5
11E
330
1F
100
AcDbEntity
  8
0
  6
CONTINUOUS
 62
     3
100
AcDbLine
 10
51.60000047683715
 20
-5.440003993780954
 30
0.0
 11
47.79999952316283
 21
-5.440003993780954
 31
0.0
  0
LINE
  5
11F
330
1F
100
AcDbEntity
  8
0
  6
CONTINUOUS
 62
     3
100
AcDbLine
 10
51.60000047683715
 20
-5.740003993780959
 30
0.0
 11
47.79999952316283
 21
-5.740003993780959
 31
0.0
  0
LINE
  5
120
330
1F
100
AcDbEntity
  8
0
  6
CONTINUOUS
 62
     3
100
AcDbLine
 10
47.09999952316284
 20
-1.837130372712983
 30
0.0
 11
47.09999952316284
 21
-0.8400041070297908
 31
0.0
  0
LINE
  5
121
330
1F
100
AcDbEntity
  8
0
  6
CONTINUOUS
 62
     3
100
AcDbLine
 10
51.60000047683715
 20
4.059995779721398
 30
0.0
 11
51.60000047683715
 21
3.759995779721386
 31
0.0
  0
LINE
  5
122
330
1F
100
AcDbEntity
  8
0
  6
CONTINUOUS
 62
     3
100
AcDbLine
 10
51.60000047683715
 20
3.759995779721386
 30
0.0
 11
47.79999952316283
 21
3.759995779721386
 31
0.0
  0
LINE
  5
123
330
1F
100
AcDbEntity
  8
0
  6
CONTINUOUS
 62
     3
100
AcDbLine
 10
51.60000047683715
 20
4.059995779721398
 30
0.0
 11
47.79999952316283
 21
4.059995779721398
 31
0.0
  0
LINE
  5
124
330
1F
100
AcDbEntity
  8
0
  6
CONTINUOUS
 62
     3
100
AcDbLine
 10
47.09999952316283
 20
0.1571221586534302
 30
0.0
 11
47.09999952316284
 21
-0.8400041070297766
 31
0.0
  0
ARC
  5
125
330
1F
100
AcDbEntity
  8
0
  6
CONTINUOUS
 62
     3
100
AcDbCircle
 10
47.19999952316284
 20
4.559995892970214
 30
0.0
 40
0.6
100
AcDbArc
 50
0.0000000000000472
 51
90.00000000000006
  0
LINE
  5
126
330
1F
100
AcDbEntity
  8
0
  6
CONTINUOUS
 62
     3
100
AcDbLine
 10
51.60000047683715
 20
-5.440003993780954
 30
0.0
 11
51.60000047683715
 21
-5.740003993780959
 31
0.0
  0
LINE
  5
127
330
1F
100
AcDbEntity
  8
0
  6
CONTINUOUS
 62
     3
100
AcDbLine
 10
47.09999952316283
 20
0.1571221586534302
 30
0.0
 11
46.59999952316283
 21
0.1571221586534302
 31
0.0
  0
LINE
  5
128
330
1F
100
AcDbEntity
  8
0
  6
CONTINUOUS
 62
     3
100
AcDbLine
 10
47.09999952316284
 20
-1.837130372712983
 30
0.0
 11
46.59999952316284
 21
-1.837130372712983
 31
0.0
  0
LINE
  5
129
330
1F
100
AcDbEntity
  8
0
  6
CONTINUOUS
 62
     3
100
AcDbLine
 10
47.79999952316283
 20
4.559995892970214
 30
0.0
 11
47.79999952316285
 21
-6.240004107029782
 31
0.0
  0
LINE
  5
12A
330
1F
100
AcDbEntity
  8
0
  6
CONTINUOUS
 62
     3
100
AcDbLine
 10
46.59999952316284
 20
-6.840004107029784
 30
0.0
 11
47.19999952316284
 21
-6.840004107029784
 31
0.0
  0
ARC
  5
12B
330
1F
100
AcDbEntity
  8
0
  6
CONTINUOUS
 62
     3
100
AcDbCircle
 10
47.19999952316284
 20
-6.240004107029782
 30
0.0
 40
0.6
100
AcDbArc
 50
270.0
 51
360.0
  0
LINE
  5
12C
330
1F
100
AcDbEntity
  8
0
  6
CONTINUOUS
 62
     3
100
AcDbLine
 10
79.10000047683718
 20
3.759995892970252
 30
0.0
 11
77.10000047683718
 21
3.759995892970224
 31
0.0
  0
LINE
  5
12D
330
1F
100
AcDbEntity
  8
0
  6
CONTINUOUS
 62
     3
100
AcDbLine
 10
79.10000047683715
 20
4.15999589297023
 30
0.0
 11
79.10000047683718
 21
3.759995892970252
 31
0.0
  0
LINE
  5
12E
330
1F
100
AcDbEntity
  8
0
  6
CONTINUOUS
 62
     3
100
AcDbLine
 10
77.10000047683718
 20
4.15999589297023
 30
0.0
 11
77.10000047683718
 21
3.759995892970224
 31
0.0
  0
LINE
  5
12F
330
1F
100
AcDbEntity
  8
0
  6
CONTINUOUS
 62
     3
100
AcDbLine
 10
77.10000047683715
 20
-5.440004107029765
 30
0.0
 11
79.10000047683712
 21
-5.440004107029765
 31
0.0
  0
LINE
  5
130
330
1F
100
AcDbEntity
  8
0
  6
CONTINUOUS
 62
     3
100
AcDbLine
 10
77.10000047683715
 20
-5.840004107029742
 30
0.0
 11
77.10000047683715
 21
-5.440004107029765
 31
0.0
  0
LINE
  5
131
330
1F
100
AcDbEntity
  8
0
  6
CONTINUOUS
 62
     3
100
AcDbLine
 10
79.10000047683715
 20
-5.840004107029742
 30
0.0
 11
79.10000047683715
 21
-5.440004107029765
 31
0.0
  0
LINE
  5
132
330
1F
100
AcDbEntity
  8
0
  6
CONTINUOUS
 62
     3
100
AcDbLine
 10
79.10000047683715
 20
4.15999589297023
 30
0.0
 11
77.10000047683718
 21
4.15999589297023
 31
0.0
  0
LINE
  5
133
330
1F
100
AcDbEntity
  8
0
  6
CONTINUOUS
 62
     3
100
AcDbLine
 10
77.10000047683715
 20
-5.840004107029742
 30
0.0
 11
79.10000047683715
 21
-5.840004107029742
 31
0.0
  0
LINE
  5
134
330
1F
100
AcDbEntity
  8
0
  6
CONTINUOUS
 62
     3
100
AcDbLine
 10
74.35000047683715
 20
-4.590004107029714
 30
0.0
 11
73.37525560544555
 21
-4.590004107029742
 31
0.0
  0
LINE
  5
135
330
1F
100
AcDbEntity
  8
0
  6
CONTINUOUS
 62
     3
100
AcDbLine
 10
74.35000047683715
 20
-5.564748978421321
 30
0.0
 11
74.35000047683715
 21
-4.590004107029714
 31
0.0
  0
LINE
  5
136
330
1F
100
AcDbEntity
  8
0
  6
CONTINUOUS
 62
     3
100
AcDbLine
 10
74.35000047683715
 20
-4.090004107029714
 30
0.0
 11
74.35000047683715
 21
-3.115259235638135
 31
0.0
  0
LINE
  5
137
330
1F
100
AcDbEntity
  8
0
  6
CONTINUOUS
 62
     3
100
AcDbLine
 10
74.85000047683715
 20
-3.115259235638135
 30
0.0
 11
74.85000047683715
 21
-4.090004107029714
 31
0.0
  0
LINE
  5
138
330
1F
100
AcDbEntity
  8
0
  6
CONTINUOUS
 62
     3
100
AcDbLine
 10
74.85000047683715
 20
-4.590004107029714
 30
0.0
 11
74.85000047683712
 21
-5.564748978421292
 31
0.0
  0
LINE
  5
139
330
1F
100
AcDbEntity
  8
0
  6
CONTINUOUS
 62
     3
100
AcDbLine
 10
73.37525560544556
 20
-4.090004107029714
 30
0.0
 11
74.35000047683715
 21
-4.090004107029714
 31
0.0
  0
LINE
  5
13A
330
1F
100
AcDbEntity
  8
0
  6
CONTINUOUS
 62
     3
100
AcDbLine
 10
75.82474534822873
 20
-4.590004107029714
 30
0.0
 11
74.85000047683715
 21
-4.590004107029714
 31
0.0
  0
LINE
  5
13B
330
1F
100
AcDbEntity
  8
0
  6
CONTINUOUS
 62
     3
100
AcDbLine
 10
74.85000047683715
 20
-4.090004107029714
 30
0.0
 11
75.82474534822873
 21
-4.090004107029714
 31
0.0
  0
CIRCLE
  5
13C
330
1F
100
AcDbEntity
  8
0
  6
CONTINUOUS
 62
     3
100
AcDbCircle
 10
74.60000047683715
 20
-4.340004107029742
 30
0.0
 40
1.25
  0
CIRCLE
  5
13D
330
1F
100
AcDbEntity
  8
0
  6
CONTINUOUS
 62
     3
100
AcDbCircle
 10
78.10000047683715
 20
-0.8400041070297988
 30
0.0
 40
8.5
  0
CIRCLE
  5
13E
330
1F
100
AcDbEntity
  8
0
  6
CONTINUOUS
 62
     3
100
AcDbCircle
 10
78.10000047683715
 20
-0.8400041070297988
 30
0.0
 40
7.5
  0
ARC
  5
13F
330
1F
100
AcDbEntity
  8
0
  6
CONTINUOUS
 62
     3
100
AcDbCircle
 10
78.10000047683715
 20
-0.8400041070297135
 30
0.0
 40
6.7
100
AcDbArc
 50
111.7753128152793
 51
249.2164404041543
  0
ARC
  5
140
330
1F
100
AcDbEntity
  8
0
  6
CONTINUOUS
 62
     3
100
AcDbCircle
 10
75.90000047683711
 20
-6.636554805505497
 30
0.0
 40
0.5
100
AcDbArc
 50
249.2164404041543
 51
360.0
  0
LINE
  5
141
330
1F
100
AcDbEntity
  8
0
  6
CONTINUOUS
 62
     3
100
AcDbLine
 10
76.40000047683714
 20
-5.090003993780883
 30
0.0
 11
76.40000047683714
 21
-6.636554805505497
 31
0.0
  0
ARC
  5
142
330
1F
100
AcDbEntity
  8
0
  6
CONTINUOUS
 62
     3
100
AcDbCircle
 10
76.90000047683714
 20
-5.090003993780883
 30
0.0
 40
0.5
100
AcDbArc
 50
90.0
 51
180.0
  0
LINE
  5
143
330
1F
100
AcDbEntity
  8
0
  6
CONTINUOUS
 62
     3
100
AcDbLine
 10
76.90000047683714
 20
-4.590003993780883
 30
0.0
 11
79.40000047683714
 21
-4.590003993780883
 31
0.0
  0
ARC
  5
144
330
1F
100
AcDbEntity
  8
0
  6
CONTINUOUS
 62
     3
100
AcDbCircle
 10
79.40000047683711
 20
-5.090003993780883
 30
0.0
 40
0.5
100
AcDbArc
 50
360.0
 51
450.0
  0
LINE
  5
145
330
1F
100
AcDbEntity
  8
0
  6
CONTINUOUS
 62
     3
100
AcDbLine
 10
79.90000047683711
 20
-5.090003993780883
 30
0.0
 11
79.90000047683714
 21
-6.597607775223608
 31
0.0
  0
ARC
  5
146
330
1F
100
AcDbEntity
  8
0
  6
CONTINUOUS
 62
     3
100
AcDbCircle
 10
80.40000047683711
 20
-6.597607775223636
 30
0.0
 40
0.5
100
AcDbArc
 50
180.0
 51
291.7753128152795
  0
ARC
  5
147
330
1F
100
AcDbEntity
  8
0
  6
CONTINUOUS
 62
     3
100
AcDbCircle
 10
78.10000047683715
 20
-0.8400041070297135
 30
0.0
 40
6.7
100
AcDbArc
 50
291.7753128152794
 51
428.2246871847206
  0
ARC
  5
148
330
1F
100
AcDbEntity
  8
0
  6
CONTINUOUS
 62
     3
100
AcDbCircle
 10
80.40000047683714
 20
4.917599561164209
 30
0.0
 40
0.5
100
AcDbArc
 50
68.22468718472074
 51
180.0
  0
LINE
  5
149
330
1F
100
AcDbEntity
  8
0
  6
CONTINUOUS
 62
     3
100
AcDbLine
 10
79.90000047683714
 20
3.409995779721456
 30
0.0
 11
79.90000047683714
 21
4.917599561164209
 31
0.0
  0
ARC
  5
14A
330
1F
100
AcDbEntity
  8
0
  6
CONTINUOUS
 62
     3
100
AcDbCircle
 10
79.40000047683711
 20
3.409995779721456
 30
0.0
 40
0.5
100
AcDbArc
 50
270.0
 51
360.0
  0
LINE
  5
14B
330
1F
100
AcDbEntity
  8
0
  6
CONTINUOUS
 62
     3
100
AcDbLine
 10
76.80000047683714
 20
2.909995779721456
 30
0.0
 11
79.40000047683714
 21
2.909995779721456
 31
0.0
  0
ARC
  5
14C
330
1F
100
AcDbEntity
  8
0
  6
CONTINUOUS
 62
     3
100
AcDbCircle
 10
76.80000047683714
 20
3.409995779721456
 30
0.0
 40
0.5
100
AcDbArc
 50
180.0
 51
270.0
  0
LINE
  5
14D
330
1F
100
AcDbEntity
  8
0
  6
CONTINUOUS
 62
     3
100
AcDbLine
 10
76.30000047683717
 20
3.409995779721484
 30
0.0
 11
76.30000047683717
 21
4.917599561164209
 31
0.0
  0
ARC
  5
14E
330
1F
100
AcDbEntity
  8
0
  6
CONTINUOUS
 62
     3
100
AcDbCircle
 10
75.80000047683714
 20
4.917599561164209
 30
0.0
 40
0.5
100
AcDbArc
 50
360.0
 51
471.7753128152791
  0
LINE
  5
14F
330
1F
100
AcDbEntity
  8
0
  6
CENTER
 62
     9
100
AcDbLine
 10
48.79999952316285
 20
-0.8400041070297775
 30
0.0
 11
-10.60000047683719
 21
-0.8400041070297775
 31
0.0
  0
LINE
  5
150
330
1F
100
AcDbEntity
  8
0
  6
CENTER
 62
     9
100
AcDbLine
 10
-72.10000047683717
 20
-2.340004107029756
 30
0.0
 11
-72.10000047683717
 21
0.6599958929702714
 31
0.0
  0
LINE
  5
151
330
1F
100
AcDbEntity
  8
0
  6
CENTER
 62
     9
100
AcDbLine
 10
-84.100000476837
 20
-2.34000410703039
 30
0.0
 11
-84.10000047683717
 21
0.6599958929701018
 31
0.0
  0
LINE
  5
152
330
1F
100
AcDbEntity
  8
0
  6
CENTER
 62
     9
100
AcDbLine
 10
-68.60000047683717
 20
-0.8400041070298272
 30
0.0
 11
-87.60000047683717
 21
-0.8400041070298272
 31
0.0
  0
LINE
  5
153
330
1F
100
AcDbEntity
  8
0
  6
CENTER
 62
     9
100
AcDbLine
 10
-78.10000047683717
 20
8.659995892970173
 30
0.0
 11
-78.10000047683717
 21
-10.34000410702983
 31
0.0
  0
CIRCLE
  5
154
330
1F
100
AcDbEntity
  8
0
  6
CONTINUOUS
 62
     9
100
AcDbCircle
 10
-72.10000047683717
 20
-0.8400041070297561
 30
0.0
 40
1.0
  0
CIRCLE
  5
155
330
1F
100
AcDbEntity
  8
0
  6
CONTINUOUS
 62
     9
100
AcDbCircle
 10
-84.10000047683717
 20
-0.8400041070298983
 30
0.0
 40
1.0
  0
LINE
  5
156
330
1F
100
AcDbEntity
  8
0
  6
CONTINUOUS
 62
     9
100
AcDbLine
 10
52.10000047683715
 20
3.759995779721386
 30
0.0
 11
60.10000047683715
 21
3.759995779721386
 31
0.0
  0
LINE
  5
157
330
1F
100
AcDbEntity
  8
0
  6
CONTINUOUS
 62
     9
100
AcDbLine
 10
52.10000047683715
 20
-5.440003993780958
 30
0.0
 11
60.10000047683715
 21
-5.440003993780958
 31
0.0
  0
LINE
  5
158
330
1F
100
AcDbEntity
  8
0
  6
DIVIDE
 62
     9
100
AcDbLine
 10
23.99999952316281
 20
7.659995684353941
 30
0.0
 11
23.99999952316281
 21
-9.340004315646048
 31
0.0
  0
LINE
  5
159
330
1F
100
AcDbEntity
  8
0
  6
DIVIDE
 62
     9
100
AcDbLine
 10
39.99999952316281
 20
7.659995684353955
 30
0.0
 11
39.99999952316281
 21
-9.340004315646041
 31
0.0
  0
LINE
  5
15A
330
1F
100
AcDbEntity
  8
0
  6
CONTINUOUS
 62
     9
100
AcDbLine
 10
59.60000047683715
 20
3.759995779721386
 30
0.0
 11
59.60000047683715
 21
-5.440003993780958
 31
0.0
  0
INSERT
  5
15B
330
1F
100
AcDbEntity
  8
0
 62
     9
100
AcDbBlockReference
  2
_OPEN30
 10
59.60000047683715
 20
3.759995779721386
 30
0.0
 41
3.000002787824364
 42
2.999989273978464
 50
90.0
  0
INSERT
  5
15C
330
1F
100
AcDbEntity
  8
0
 62
     9
100
AcDbBlockReference
  2
_OPEN30
 10
59.60000047683715
 20
-5.440003993780958
 30
0.0
 41
3.000002787824364
 42
2.999989273978464
 50
270.0
  0
INSERT
  5
15D
330
1F
100
AcDbEntity
  8
0
  6
CONTINUOUS
100
AcDbBlockReference
  2
DA_IMAGEDIMGROUP_1
 10
0.0
 20
0.0
 30
0.0
  0
INSERT
  5
15E
330
1F
100
AcDbEntity
  8
0
  6
CONTINUOUS
100
AcDbBlockReference
  2
DA_IMAGEDIMGROUP_2
 10
0.0
 20
0.0
 30
0.0
  0
INSERT
  5
15F
330
1F
100
AcDbEntity
  8
0
  6
CONTINUOUS
100
AcDbBlockReference
  2
DA_IMAGEDIMGROUP_3
 10
0.0
 20
0.0
 30
0.0
  0
INSERT
  5
160
330
1F
100
AcDbEntity
  8
0
  6
CONTINUOUS
100
AcDbBlockReference
  2
DA_IMAGEDIMGROUP_4
 10
0.0
 20
0.0
 30
0.0
  0
INSERT
  5
161
330
1F
100
AcDbEntity
  8
0
  6
CONTINUOUS
100
AcDbBlockReference
  2
DC_GROUP_1
 10
0.0
 20
0.0
 30
0.0
  0
INSERT
  5
162
330
1F
100
AcDbEntity
  8
0
  6
CONTINUOUS
100
AcDbBlockReference
  2
DA_IMAGEDIMGROUP_5
 10
0.0
 20
0.0
 30
0.0
  0
INSERT
  5
163
330
1F
100
AcDbEntity
  8
0
  6
CONTINUOUS
100
AcDbBlockReference
  2
DA_IMAGEDIMGROUP_6
 10
0.0
 20
0.0
 30
0.0
  0
INSERT
  5
164
330
1F
100
AcDbEntity
  8
0
  6
CONTINUOUS
100
AcDbBlockReference
  2
DA_IMAGEDIMGROUP_7
 10
0.0
 20
0.0
 30
0.0
  0
INSERT
  5
165
330
1F
100
AcDbEntity
  8
0
  6
CONTINUOUS
100
AcDbBlockReference
  2
DA_IMAGEDIMGROUP_8
 10
0.0
 20
0.0
 30
0.0
  0
INSERT
  5
166
330
1F
100
AcDbEntity
  8
0
  6
CONTINUOUS
100
AcDbBlockReference
  2
DC_GROUP_2
 10
0.0
 20
0.0
 30
0.0
  0
INSERT
  5
167
330
1F
100
AcDbEntity
  8
0
  6
CONTINUOUS
100
AcDbBlockReference
  2
DA_IMAGEDIMGROUP_9
 10
0.0
 20
0.0
 30
0.0
  0
INSERT
  5
168
330
1F
100
AcDbEntity
  8
0
  6
CONTINUOUS
100
AcDbBlockReference
  2
DC_GROUP_3
 10
0.0
 20
0.0
 30
0.0
  0
INSERT
  5
169
330
1F
100
AcDbEntity
  8
0
  6
CONTINUOUS
100
AcDbBlockReference
  2
DA_IMAGEDIMGROUP_10
 10
0.0
 20
0.0
 30
0.0
  0
TEXT
  5
16A
330
1F
100
AcDbEntity
  8
0
 62
     7
100
AcDbText
 10
59.10000047683714
 20
-5.640004107029781
 30
0.0
 40
4.0
  1
9.2
 50
90.0
 41
0.7999999999999995
  7
FDASTYLE0
 72
     5
 11
59.10000047683714
 21
3.959995892970214
 31
0.0
100
AcDbText
  0
LINE
  5
16B
330
1F
100
AcDbEntity
  8
0
  6
CENTER
 62
     9
100
AcDbLine
 10
87.60000047683715
 20
-0.8400041070298272
 30
0.0
 11
68.60000047683703
 21
-0.8400041070298556
 31
0.0
  0
LINE
  5
16C
330
1F
100
AcDbEntity
  8
0
  6
CENTER
 62
     9
100
AcDbLine
 10
78.1000004768371
 20
8.659995892970201
 30
0.0
 11
78.1000004768371
 21
-10.34000410702991
 31
0.0
  0
LINE
  5
16D
330
1F
100
AcDbEntity
  8
0
  6
CENTER
 62
     9
100
AcDbLine
 10
78.10000047683712
 20
8.659995892970201
 30
0.0
 11
78.10000047683715
 21
-0.8400041070297135
 31
0.0
  0
VIEWPORT
  5
46
330
1B
100
AcDbEntity
 67
     1
  8
0
100
AcDbViewport
 10
-0.0000000000000284
 20
-0.0000000000000071
 30
0.0
 40
525.6000028610229
 41
180.9599753578215
 68
     1
 69
     1
1001
ACAD
1000
MVIEW
1002
{
1070
    16
1010
0.0
1020
0.0
1030
0.0
1010
0.0
1020
0.0
1030
1.0
1040
0.0
1040
180.9599753578215
1040
-0.0000000000000284
1040
-0.0000000000000071
1040
50.0
1040
0.0
1040
0.0
1070
     0
1070
   100
1070
     0
1070
     1
1070
     0
1070
     0
1070
     0
1070
     0
1040
0.0
1040
0.0
1040
0.0
1040
0.5
1040
0.5
1040
0.0
1040
0.0
1070
     0
1002
{
1002
}
1002
}
  0
ENDSEC
  0
SECTION
  2
OBJECTS
  0
DICTIONARY
  5
C
330
0
100
AcDbDictionary
  3
ACAD_GROUP
350
D
  3
ACAD_LAYOUT
350
1A
  3
ACAD_MLINESTYLE
350
17
  3
ACAD_PLOTSETTINGS
350
19
  3
ACDBHEADERROUNDTRIPXREC
350
16E
  0
DICTIONARY
  5
D
102
{ACAD_REACTORS
330
C
102
}
330
C
100
AcDbDictionary
  0
DICTIONARY
  5
1A
102
{ACAD_REACTORS
330
C
102
}
330
C
100
AcDbDictionary
  0
DICTIONARY
  5
17
102
{ACAD_REACTORS
330
C
102
}
330
C
100
AcDbDictionary
  3
STANDARD
350
18
  0
DICTIONARY
  5
19
102
{ACAD_REACTORS
330
C
102
}
330
C
100
AcDbDictionary
  0
DICTIONARY
  5
16E
102
{ACAD_REACTORS
330
C
102
}
330
C
100
AcDbDictionary
  3
CEPSNTYPE
350
177
  3
DIMSTYLEDATA
350
18D
  3
FINGERPRINTGUID
350
178
  3
HYPERLINKBASE
350
171
  3
INSUNITS
350
176
  3
LAYOUTDICT
350
173
  3
LWETCUNION
350
175
  3
PLOTSETDICT
350
174
  3
PSVPSCALE
350
17A
  3
PUCSBASE
350
17D
  3
PUCSORGBACK
350
183
  3
PUCSORGBOTTOM
350
17F
  3
PUCSORGFRONT
350
182
  3
PUCSORGLEFT
350
180
  3
PUCSORGRIGHT
350
181
  3
PUCSORGTOP
350
17E
  3
PUCSORTHOREF
350
17B
  3
PUCSORTHOVIEW
350
17C
  3
STYLESHEET
350
172
  3
TSTACKALIGN
350
16F
  3
TSTACKSIZE
350
170
  3
UCSBASE
350
186
  3
UCSORGBACK
350
18C
  3
UCSORGBOTTOM
350
188
  3
UCSORGFRONT
350
18B
  3
UCSORGLEFT
350
189
  3
UCSORGRIGHT
350
18A
  3
UCSORGTOP
350
187
  3
UCSORTHOREF
350
184
  3
UCSORTHOVIEW
350
185
  3
VERSIONGUID
350
179
  0
MLINESTYLE
  5
18
102
{ACAD_REACTORS
330
17
102
}
330
17
100
AcDbMlineStyle
  2
Standard
 70
     0
  3

 62
   256
 51
90.0
 52
90.0
 71
     2
 49
0.5
 62
   256
  6
BYLAYER
 49
-0.5
 62
   256
  6
BYLAYER
  0
XRECORD
  5
177
102
{ACAD_REACTORS
330
16E
102
}
330
16E
100
AcDbXrecord
 90
        0
  0
XRECORD
  5
18D
102
{ACAD_REACTORS
330
16E
102
}
330
16E
100
AcDbXrecord
1000
DSTYLE
1002
{
1070
   171
 70
     2
1070
   143
 40
25.4
1070
   274
 70
     2
1070
   141
 40
0.09
1070
   271
 70
     4
1070
    43
 40
0.38
1070
    44
 40
0.18
1070
   278
 70
    46
1070
    42
 40
0.0625
1070
   147
 40
0.09
1070
    77
 70
     3
1070
   272
 70
     4
1070
    73
 70
     1
1070
   172
 70
     0
1070
    74
 70
     1
1070
   283
 70
     1
1070
   340
340
11
1070
   140
 40
0.18
1070
   284
 70
     0
1070
    78
 70
     0
1002
}
  0
XRECORD
  5
178
102
{ACAD_REACTORS
330
16E
102
}
330
16E
100
AcDbXrecord
  1
{6A280889-C980-455C-AB98-49A0263A5C71}
  0
XRECORD
  5
171
102
{ACAD_REACTORS
330
16E
102
}
330
16E
100
AcDbXrecord
  1

  0
XRECORD
  5
176
102
{ACAD_REACTORS
330
16E
102
}
330
16E
100
AcDbXrecord
 90
        4
  0
XRECORD
  5
173
102
{ACAD_REACTORS
330
16E
102
}
330
16E
100
AcDbXrecord
340
1A
  0
XRECORD
  5
175
102
{ACAD_REACTORS
330
16E
102
}
330
16E
100
AcDbXrecord
 90
    10781
  0
XRECORD
  5
174
102
{ACAD_REACTORS
330
16E
102
}
330
16E
100
AcDbXrecord
340
19
  0
XRECORD
  5
17A
102
{ACAD_REACTORS
330
16E
102
}
330
16E
100
AcDbXrecord
 40
0.0
  0
XRECORD
  5
17D
102
{ACAD_REACTORS
330
16E
102
}
330
16E
100
AcDbXrecord
340
0
  0
XRECORD
  5
183
102
{ACAD_REACTORS
330
16E
102
}
330
16E
100
AcDbXrecord
 10
0.0
 20
0.0
 30
0.0
  0
XRECORD
  5
17F
102
{ACAD_REACTORS
330
16E
102
}
330
16E
100
AcDbXrecord
 10
0.0
 20
0.0
 30
0.0
  0
XRECORD
  5
182
102
{ACAD_REACTORS
330
16E
102
}
330
16E
100
AcDbXrecord
 10
0.0
 20
0.0
 30
0.0
  0
XRECORD
  5
180
102
{ACAD_REACTORS
330
16E
102
}
330
16E
100
AcDbXrecord
 10
0.0
 20
0.0
 30
0.0
  0
XRECORD
  5
181
102
{ACAD_REACTORS
330
16E
102
}
330
16E
100
AcDbXrecord
 10
0.0
 20
0.0
 30
0.0
  0
XRECORD
  5
17E
102
{ACAD_REACTORS
330
16E
102
}
330
16E
100
AcDbXrecord
 10
0.0
 20
0.0
 30
0.0
  0
XRECORD
  5
17B
102
{ACAD_REACTORS
330
16E
102
}
330
16E
100
AcDbXrecord
340
0
  0
XRECORD
  5
17C
102
{ACAD_REACTORS
330
16E
102
}
330
16E
100
AcDbXrecord
 70
     0
  0
XRECORD
  5
172
102
{ACAD_REACTORS
330
16E
102
}
330
16E
100
AcDbXrecord
  1

  0
XRECORD
  5
16F
102
{ACAD_REACTORS
330
16E
102
}
330
16E
100
AcDbXrecord
 90
        1
  0
XRECORD
  5
170
102
{ACAD_REACTORS
330
16E
102
}
330
16E
100
AcDbXrecord
 90
       70
  0
XRECORD
  5
186
102
{ACAD_REACTORS
330
16E
102
}
330
16E
100
AcDbXrecord
340
0
  0
XRECORD
  5
18C
102
{ACAD_REACTORS
330
16E
102
}
330
16E
100
AcDbXrecord
 10
0.0
 20
0.0
 30
0.0
  0
XRECORD
  5
188
102
{ACAD_REACTORS
330
16E
102
}
330
16E
100
AcDbXrecord
 10
0.0
 20
0.0
 30
0.0
  0
XRECORD
  5
18B
102
{ACAD_REACTORS
330
16E
102
}
330
16E
100
AcDbXrecord
 10
0.0
 20
0.0
 30
0.0
  0
XRECORD
  5
189
102
{ACAD_REACTORS
330
16E
102
}
330
16E
100
AcDbXrecord
 10
0.0
 20
0.0
 30
0.0
  0
XRECORD
  5
18A
102
{ACAD_REACTORS
330
16E
102
}
330
16E
100
AcDbXrecord
 10
0.0
 20
0.0
 30
0.0
  0
XRECORD
  5
187
102
{ACAD_REACTORS
330
16E
102
}
330
16E
100
AcDbXrecord
 10
0.0
 20
0.0
 30
0.0
  0
XRECORD
  5
184
102
{ACAD_REACTORS
330
16E
102
}
330
16E
100
AcDbXrecord
340
0
  0
XRECORD
  5
185
102
{ACAD_REACTORS
330
16E
102
}
330
16E
100
AcDbXrecord
 70
     0
  0
XRECORD
  5
179
102
{ACAD_REACTORS
330
16E
102
}
330
16E
100
AcDbXrecord
  1
{FAEB1C32-E019-11D5-929B-00C0DF256EC4}
  0
ENDSEC
  0
EOF
